» » »

Sublime - Pawn Shop Tabs

Artists:  A B C D E F G H I J K L M N O P Q R S T U V W X Y Z # 

Pawn Shop Tabs

(ver. 3) Click to play this song!
Sublime
 Rating:
4.3/5 (26 votes)

 Pawn Shop lessons Tabs too difficult? Try these video lessons and learn fast
 
                [Intro]

e|----------------|
B|----------------|
G|----------------|
D|---5------------|
A|5h7-7~~~~~~~~~~~|
E|----------------|x4 after 4th time play this:

E|---------------------|
B|---------------------|
G|---------------7-----|
D|7/9-7\5-7-7/9--------|
A|---------------------|
E|---------------------|x1

E|----------------------|
B|----------------------|
G|---------------7------|
D|7/9-7\5-5h7-7/9-9p7h9^|
A|-------7--------------|
E|----------------------|x3 after 3rd play this:

E|-----------------------------------------------|
B|--------------------8----------8---------------|
G|---------------7-7-9-9~~~~7-7-9-9~7-7-----7^---|
D|7/9-7\5-5h7-7/9-9--------------------9p7h9-----|
A|-------7---------------------------------------|
E|-----------------------------------------------|x1


e|-------------------7/10~----------------------10--------10h12/15p12|
B|---8--10b12b10-8-10-----10/12p10\8--8h10-10/12--12p10h12-----------|
G|7-9-9~----------------------------9~-------------------------------|
D|-------------------------------------------------------------------|
A|-------------------------------------------------------------------|
E|-------------------------------------------------------------------|x1

e|1010-12/15-1212-10------------------|
B|------------------12p10h12-88h10p8--|
G|----------------------------------9^|
D|------------------------------------|
A|------------------------------------|
E|------------------------------------|x1

e|PM-----------------|
B|PM-----------------|
G|PM-----------------|
D|PM---5-5---5-5-----|
A|PM5h7---5h7---7p5-5|
E|PM---------------7-|x4

[Verse] 1:15


e|7-7-5-5|
B|5-5-3-3|
G|-------|
D|-------|
A|-------|
E|-------|x8


e|----------------|
B|----------------|
G|----------------|
D|---5------------|
A|5h7-7~~~~~~~~~~~|
E|----------------|x2 

E|---------------------|
B|---------------------|
G|---------------7-----|
D|7/9-7\5-7-7/9--------|
A|---------------------|
E|---------------------|x1

E|----------------------|
B|----------------------|
G|---------------7------|
D|7/9-7\5-5h7-7/9-9p7h9^|
A|-------7--------------|
E|----------------------|x3 after 3rd play this:

E|-----------------------------------------------|
B|--------------------8----------8---------------|
G|---------------7-7-9-9~~~~7-7-9-9~7-7-----7^---|
D|7/9-7\5-5h7-7/9-9--------------------9p7h9-----|
A|-------7---------------------------------------|
E|-----------------------------------------------|x1


e|-------------------7/10~----------------------10--------|
B|---8--10b12b10-8-10-----10/12p10\8--8h10-10/12--12p10h12|
G|7-9-9~----------------------------9~--------------------|
D|--------------------------------------------------------|
A|--------------------------------------------------------|
E|--------------------------------------------------------|x1

e|----------------------10--------10h12/15p12|
B|10/12p10\8--8h10-10/12--12p10h12-----------|
G|----------9~-------------------------------|
D|-------------------------------------------|
A|-------------------------------------------|
E|-------------------------------------------|x1

e|1010-12/15-1212-10------------------|
B|------------------12p10h12-88h10p8--|
G|----------------------------------9^|
D|------------------------------------|
A|------------------------------------|
E|------------------------------------|x1

e|PM-----------------|
B|PM-----------------|
G|PM-----------------|
D|PM---5-5---5-5-----|
A|PM5h7---5h7---7p5-5|
E|PM---------------7-|x4

[Verse 2} 2:43

e|7-7-5-5|
B|5-5-3-3|
G|-------|
D|-------|
A|-------|
E|-------|x16

3:35

e|----------------|
B|----------------|
G|----------------|
D|---5------------|
A|5h7-7~~~~~~~~~~~|
E|----------------|x2 

E|---------------------|
B|---------------------|
G|---------------7-----|
D|7/9-7\5-7-7/9--------|
A|---------------------|
E|---------------------|x1

E|----------------------|
B|----------------------|
G|---------------7------|
D|7/9-7\5-5h7-7/9-9p7h9^|
A|-------7--------------|
E|----------------------|x3 after 3rd play this:

E|-----------------------------------------------|
B|--------------------8----------8---------------|
G|---------------7-7-9-9~~~~7-7-9-9~7-7-----7^---|
D|7/9-7\5-5h7-7/9-9--------------------9p7h9-----|
A|-------7---------------------------------------|
E|-----------------------------------------------|x1

e|-------------------7/10~----------------------10--------10h12/15p12|
B|---8--10b12b10-8-10-----10/12p10\8--8h10-10/12--12p10h12-----------|
G|7-9-9~----------------------------9~-------------------------------|
D|-------------------------------------------------------------------|
A|-------------------------------------------------------------------|
E|-------------------------------------------------------------------|x1


e|1010-12/15-1212-10------------------|
B|------------------12p10h12-88h10p8--|
G|----------------------------------9^|
D|------------------------------------|
A|------------------------------------|
E|------------------------------------|x1

e|PM-----------------|
B|PM-----------------|
G|PM-----------------|
D|PM---5-5---5-5-----|
A|PM5h7---5h7---7p5-5|
E|PM---------------7-|x4

[Verse 3] 4:37

e|7-7-5-5|
B|5-5-3-3|
G|-------|
D|-------|
A|-------|
E|-------|x17


after break more reverb


e|7-7-5-5|
B|5-5-3-3|
G|-------|
D|-------|
A|-------|
E|-------|x4

e|PM-----------------|
B|PM-----------------|
G|PM-----------------|
D|PM---5-5---5-5-----|
A|PM5h7---5h7---7p5-5|
E|PM---------------7-|x4            
Submit corrections


        Pawn Shop lessons Hard to play? Try these video lessons and learn fast Pawn Shop lessons
        
↑ Back to top | Tablatures and chords for acoustic guitar and electric guitar, ukulele, drums are parodies/interpretations of the original songs. You may use it for private study, scholarship, research or language learning purposes only