» » »

Sublime - Doin Time Bass

Artists:  A B C D E F G H I J K L M N O P Q R S T U V W X Y Z # 

Doin Time Bass

(ver. 1) Click to play this song!
Sublime
 Rating:
4/5 (4 votes)
                (4String)
Intro

G----------------------|
D--------0-------1-0---|
A-------1--1-3-------1-|
E-3-3-3----------------|

Riff 2

G---------2-----3-2---|
D-------3---3-5-----3-|
A-5-5-5---------------|
E---------------------|

Riff 3

G---------0-----1-0---|
D-------1---1-3-----1-|
A-3-3-3---------------|
E---------------------|
            
Submit corrections

↑ Back to top | Tablatures and chords for acoustic guitar and electric guitar, ukulele, drums are parodies/interpretations of the original songs. You may use it for private study, scholarship, research or language learning purposes only