» » »

Styx - Babe Tabs

Artists:  A B C D E F G H I J K L M N O P Q R S T U V W X Y Z # 

Babe Tabs

(ver. 2) Click to play this song!
Styx
 Rating:
4/5 (4 votes)

 Babe lessons Tabs too difficult? Try these video lessons and learn fast
 
                -------------------------------------------------------------------------------
                                     Babe - Styx
-------------------------------------------------------------------------------

Tuning: Standard


Solo
e|---------------------------------------------------------------------------|
B|-6---6/8---6--6/8---5brp3-/8/10/12-5brp3-/8---6----8br--6----8b-8br--------|
G|---7-------------------------------------------7-7-------7-7---------------|
D|--8---------8-----------------------------------8---------8----------------|
A|---------------------------------------------------------------------------|
E|---------------------------------------------------------------------------|

e|---------------------------------------------------------------------------|
B|-5-7-7brp5-/10--5-7-7b-7brp5-/10-12-14-15-17br-----------------------------|
G|---------------------------------------------------------------------------|
D|---------------------------------------------------------------------------|
A|---------------------------------------------------------------------------|
E|---------------------------------------------------------------------------|

 / = slide up
\ = slide down
h = hammer-on
p = pull-off
b = bend
r = release
~ = vibrato
+ = harmonic
< = pick slide
x = Mute note
            
Submit corrections


        Babe lessons Hard to play? Try these video lessons and learn fast Babe lessons
        
↑ Back to top | Tablatures and chords for acoustic guitar and electric guitar, ukulele, drums are parodies/interpretations of the original songs. You may use it for private study, scholarship, research or language learning purposes only