Home » S » Styx »

Styx - Babe Bass

Artists:  A B C D E F G H I J K L M N O P Q R S T U V W X Y Z # 

Babe Bass

(ver. 1) Click to play this song!
Styx
 Rating:
4/5 (4 votes)
                Styx Babe

standard tuning

1:22
G|------------------------------------------|
D|------------------------------------------|
A|-5--5------------5--5---5--5---2-----2----|
E|-------5-5--5---------------------5-----5-|

1:39
G|---------------------------------------------------------------|
D|---------------------------------------------------------------|
A|-5--5---5--5---2-----2-----------5--5---7-7--7---5--5----------|
E|------------------5-----5---3---------------------------5-5--5-|

2:08
G|-----------------------------------------------------------|
D|-------------------------12--------------------------------|
A|-1----1--------------9/12------------1----1----------------|
E|-----------5--5--5/10--------5--5--------------5--5---5--5-|

2:30
G|---------------------------------------------------------|
D|---------------------------------------------------------|
A|-5--5---5--5---2-----2------5--5---5--5---2-----2--------|
E|------------------5-----5--------------------5-----5---3-|

2:58
G|------------------------------------------------------------|
D|------------------------------------------------------------|
A|-5--5---7--7---5--5------------5--5---5--5---5-7--7--7------|
E|----------------------5-5--5---------------------------5--5-|

3:21
G|------------------------------------------------------|
D|------------------------------------------------------|
A|---5--5----5--5----7--7-------------2--------0--------|
E|-5-------5-------5-------5-5--5---5-----3--3----3---5-|

3:44
G|-----------------------------------------|
D|-----------------------------------------|
A|-5---5---7-----5---7---5---7---5-------5-|
E|------------5----------------------5-----|
            
Submit corrections

↑ Back to top | Tablatures and chords for acoustic guitar and electric guitar, ukulele, drums are parodies/interpretations of the original songs. You may use it for private study, scholarship, research or language learning purposes only