Home » S » Styles Of Beyond »

Styles Of Beyond - Second To Tabs

Artists:  A B C D E F G H I J K L M N O P Q R S T U V W X Y Z # 

Second To Tabs

(ver. 2) Click to play this song!
Styles Of Beyond
(None)
Intro:
|-----0h2-2---2---2---2---2---2-------0h2-2---2---2---2---2---2---|
|-----------------------------------------------------------------|
|-----------------------------------------------------------------|
|-----------------------------------------------------------------|
|-----------------------------------------------------------------|
|-----------------------------------------------------------------|

Chorus:
|-----------------------------------------------------------------|
|-----------------------------------------------------------------|
|-----------------------------------------------------------------|
|-4-----x---x-x---5-----x---x-x---2-----2-----2---2-----2-----2---|
|-4-----x---x-x---5-----x---x-x---2-----2-----2---2-----2-----2---|
|-4-----x---x-x---5-----x---x-x---2-----2-----2---2-----2-----2---|
            
Submit corrections

↑ Back to top | Tablatures and chords for acoustic guitar and electric guitar, ukulele, drums are parodies/interpretations of the original songs. You may use it for private study, scholarship, research or language learning purposes only