Home » S » Stutterfly »

Stutterfly - Out Of The Mud Tabs

Artists:  A B C D E F G H I J K L M N O P Q R S T U V W X Y Z # 

Out Of The Mud Tabs

(ver. 1) Click to play this song!
Stutterfly
 Rating:
4/5 (4 votes)
                
Tuning: Dropped D (D,A,D,G,B,e)


** In My Opinion this is the best song off of "Broken Into Pieces..."


e--------------------------------------------------------------------|
B--------------------------------------------------------------------|
G--------------------------------------------------------------------| MAIN RIFF
D-0-5-7-0-7h8p7--0-5-7-0-7h8p7--x0-5-7-0-7h8p7--0-5-7-0--10-10-10-10-|
A-0-5-7-0-7h8p7--0-5-7-0-7h8p7--x0-5-7-0-7h8p7--0-5-7-0--10-10-10-10-|
D-0-5-7-0-7h8p7--0-5-7-0-7h8p7--x0-5-7-0-7h8p7--0-5-7-0--10-10-10-10-|
                                                                              

e----------------------------------|
B----------------------------------|
G----------------------------------|    VERSE RIFF 1
D-5h7-7-7-7-7-5h7-7-7-7-7--3-3-2-2-|
A-5h7-7-7-7-7-5h7-7-7-7-7--3-3-2-2-|
D-5h7-7-7-7-7-5h7-7-7-7-7--3-3-2-2-|
  . . . . . . . . . . . .  . . . .                                             

e----------------------------------|
B----------------------------------|
G----------------------------------|    VERSE RIFF 2
D-5h7-7-7-7-7-5h7-7-7-7-7--3-3-2-2-|
A-5h7-7-7-7-7-5h7-7-7-7-7--3-3-2-2-|
D-5h7-7-7-7-7-5h7-7-7-7-7--3-3-2-2-|
                                                                              

e----------------------------|
B---------------5-5-5-5------|
G---------------x-x-x-x------|      CHORUS RIFF
D-0-0-0--7-7-7--3-3-3-3--8-7-|
A-0-0-0--7-7-7--3-3-3-3--8-7-|
D-0-0-0--7-7-7--3-3-3-3--8-7-|
                                                                              

e--------------------------|
B--------------------------|
G--------------------------|    BRIDGE RIFF 1
D--8-0-0----8-0-0----8-0-0-|
A--8-0-0----8-0-0----8-0-0-|
D--8-0-0----8-0-0----8-0-0-|
                                                                              

e-----------------------------------|
B-----------------------------------|
G-----------------------------------|    BRIDGE RIFF 2
D-8-0-0-0-0-8-0-0-0-0-8-0-0-0-0--8r-|
A-8-0-0-0-0-8-0-0-0-0-8-0-0-0-0--8r-|
D-8-0-0-0-0-8-0-0-0-0-8-0-0-0-0--8r-|
                                                                              

e---------------------------------------------------|
B---------------------------------------------------|
G---------------------------------------------------|   BRIDGE RIFF 3
D-0-0--0-9--0-0--0-9--0-0--0-9----------------------|
A-0-0--0-8--0-0--0-8--0-0--0-8----------------------|
D-0-0--0-8--0-0--0-8--0-0--0-8--8-10-8-10-8-10-8-10-|
  . .  .    . .  .    . .  .    . .. . .. . .. . ..                            

e---------------------------------------------------|
B---------------------------------------------------|
G---------------------------------------------------|   BRIDGE RIFF 4
D-0-0--0-8--0-0--0-8--0-0--0-8----------------------|
A-0-0--0-8--0-0--0-8--0-0--0-8----------------------|
D-0-0--0-8--0-0--0-8--0-0--0-8--8-10-8-10-8-10-8-10-|
  . .  .    . .  .    . .  .    . .. . .. . .. . ..
            
Submit corrections

↑ Back to top | Tablatures and chords for acoustic guitar and electric guitar, ukulele, drums are parodies/interpretations of the original songs. You may use it for private study, scholarship, research or language learning purposes only