Home » S » Stutterfly »

Stutterfly - Hollow Tabs

Artists:  A B C D E F G H I J K L M N O P Q R S T U V W X Y Z # 

Hollow Tabs

(ver. 2) Click to play this song!
Stutterfly
 Rating:
4/5 (4 votes)
                Tuning: Drop d...hey i did best i could, feel free to e-mail me about this. 


e|-----------------------------------------|        
b|-----------------------------------------|        
g|-----------------------------------------|        
d|--7-7-5-5-8-xx-0-0---7-7-5-5-3-xx-0-0----| 2 times     
a|--7-7-5-5-8-xx-0-0---7-7-5-5-3-xx-0-0----|        
d|--7-7-5-5-8-xx-0-0---7-7-5-5-3-xx-0-0----|        
   no distortion                                    

e|--------------------------------------|
b|--------------------------------------|
g|--------------------------------------|
d|--7-7-5-5-8-xx-0-0--7-7-5-5-3-xx-0-0--| 4 times
a|--7-7-5-5-8-xx-0-0--7-7-5-5-3-xx-0-0--|
d|--7-7-5-5-8-xx-0-0--7-7-5-5-3-xx-0-0--|
 heavy distortion


e|---------------------------------------|
b|---------------------------------------|
g|---------------------------------------|
d|--7-7-5-5-8---0-0---7-7-5-5-3---0-0----| 6 times
a|--0-0-0-0-0---0-0---0-0-0-0-0---0-0----|
d|---------------------------------------|
no distortion       


e|-------------------------------------------|         
b|-------------------------------------------|         
g|-------------------------------------------|         
d|--7-7-5-5-8-xx--0-0---7-7-5-5-3-xx--0-0----| 2 times    
a|--7-7-5-5-8-xx--0-0---7-7-5-5-3-xx--0-0----|         
d|--7-7-5-5-8-xx--0-0---7-7-5-5-3-xx--0-0----|        
dostortion                                                      

e|----------------------------------------------|  
b|----------------------------------------------|
g|----------------------------------------------|
d|--7-0-5-0-8---000-0-0-07-0-5-0-3---000-0-0-0--| 6 times
a|--7-0-5-0-8---000-0-0-07-0-5-0-3---000-0-0-0--|
d|--7-0-5-0-8---000-0-0-07-0-5-0-3---000-0-0-0--|
    ..........................................


e|------------------------------------------------------------------|         
b|------------------------------------------------------------------|         
g|------------------------------------------------------------------|         
d|--3-3-5-5-0~-----3-3-5-5--0~----3-3-5-5-0~----3-3------5-5-----0~-|     
a|--3-3-5-5-0~-----3-3-5-5--0~----3-3-5-5-0~----3-3------5-5-----0~-|         
d|--3-3-5-5-0~-----3-3-5-5--0~----3-3-5-5-0~----3-3------5-5-----0~-|        
  you fall apart               
                              
e-------------|
b-------------|
g-------------|
d--00-0-00----|
a--00-0-00----|
d--00-0-00----|
   .. . ..


e|----------------------------------------------|  
b|----------------------------------------------|
g|----------------------------------------------|
d|--7-0-5-0-8---000-0-0-07-0-5-0-3---000-0-0-0--| 6 times
a|--7-0-5-0-8---000-0-0-07-0-5-0-3---000-0-0-0--|
d|--7-0-5-0-8---000-0-0-07-0-5-0-3---000-0-0-0--|
    ..........................................


e|--------------------------------------|
b|--------------------------------------|
g|--------------------------------------|
d|--7-7-5-5-8-xx-0-0--7-7-5-5-3-xx-0-0--| 6 times
a|--7-7-5-5-8-xx-0-0--7-7-5-5-3-xx-0-0--|
d|--7-7-5-5-8-xx-0-0--7-7-5-5-3-xx-0-0--|
 heavy distortion


e|------------------------------------------------------------------|         
b|------------------------------------------------------------------|         
g|------------------------------------------------------------------|         
d|--3-3-5-5-0~-----3-3-5-5--0~----3-3-5-5-0~----3-3------5-5-----0~-|     
a|--3-3-5-5-0~-----3-3-5-5--0~----3-3-5-5-0~----3-3------5-5-----0~-|         
d|--3-3-5-5-0~-----3-3-5-5--0~----3-3-5-5-0~----3-3------5-5-----0~-|




e|----------------|      
b|----------------|      
g|----------------|      
d|--0-2-0-2-0-2---| 4 times
a|--0-2-0-2-0-2---|      
d|--0-2-0-2-0-2---|      

                 
e|---------------------------------------|
b|---------------------------------------|
g|---------------------------------------|
d|--0-2-0-2-0-2-------0-2-0-2-0-2--------| 2 times
a|--0-2-0-2-0-2-------0-2-0-2-0-2--------|
d|--0-2-0-2-0-2-2-3-3-0-2-0-2-0-2-2-5-5--|

e|---------------------------------------------|
b|---------------------------------------------|
g|---------------------------------------------|
d|--0-2-0-2-0-2-0-2-33-----0-2-0-2-0-2-0-2-55--|
a|--0-2-0-2-0-2-0-2-33-----0-2-0-2-0-2-0-2-55--|
d|--0-2-0-2-0-2-0-2-33-----0-2-0-2-0-2-0-2-55--|

e|---------------------------------------------|
b|---------------------------------------------|
g|---------------------------------------------|
d|--0-2-0-2-0-2-0-2-33-----0-2-0-2-0-2-0-2-00--|
a|--0-2-0-2-0-2-0-2-33-----0-2-0-2-0-2-0-2-00--|
d|--0-2-0-2-0-2-0-2-33-----0-2-0-2-0-2-0-2-00--|
                                           ..
e|---------------------------------------------|
b|---------------------------------------------|
g|---------------------------------------------|
d|--0-2-0-2-0-2-0-2-33-----0-2-0-2-0-2-0-2-55--|
a|--0-2-0-2-0-2-0-2-33-----0-2-0-2-0-2-0-2-55--|
d|--0-2-0-2-0-2-0-2-33-----0-2-0-2-0-2-0-2-55--|

e|---------------------------------------------|
b|---------------------------------------------|
g|---------------------------------------------|
d|--0-2-0-2-0-2-0-2-33-----0-2-0-2-0---|
a|--0-2-0-2-0-2-0-2-33-----0-2-0-2-0---|
d|--0-2-0-2-0-2-0-2-33-----0-2-0-2-0---|
                                           

e|-------|
b|-------|
g|-------|
d|--0-0--|
a|--0-0--|
d|--0-0--|
            
Submit corrections

↑ Back to top | Tablatures and chords for acoustic guitar and electric guitar, ukulele, drums are parodies/interpretations of the original songs. You may use it for private study, scholarship, research or language learning purposes only