Home » S » Stutterfly »

Stutterfly - Frail Tabs

Artists:  A B C D E F G H I J K L M N O P Q R S T U V W X Y Z # 

Frail Tabs

(ver. 2) Click to play this song!
Stutterfly
 Rating:
4/5 (4 votes)
                Tuning :Drop-D, A, D, G, B, E
 

Intro Guitar 1
E:-----------------------------|
B:---9---8-----9---8--6-7h-6---|
G:-0---0-----0---0---0---------| 6 Times
D:-----------------------------|
A:-----------------------------|
D:-----------------------------|
	Clean

Guitar 2 (comes in after guitar 1 does riff twice)
E:-7-88-7--7-88-10-8-7---7-88-7--7-88-7-8-10–|		|---8--7-|
B:-8-99-8--8-99-11-9-8---8-99-8--8-99-8-9-11–|		|8--9--8-|
G:-0-00-0--0-00-0--0-0---0-00-0--0-00-0-0-0--| 2 Times          |0--0--0-|
D:-------------------------------------------|		|--------|
A:-------------------------------------------|		|--------|
D:-------------------------------------------|		|--------|
	Clean Vibratating Effect		                   Let Ring..

Main Riff (distortion)
E:-------------------|-------------------|
B:-------------------|-------------------|
G:-------------------|-------------------|2 Times
D:-50-0-0-31-1-0-1-3—|-50-0-0-31-1-1-1-0—|
A:-50-0-0-31-1-0-1-3-|-50-0-0-31-1-1-1-0-|
D:-50-0-0-31-1-0-1-3-|-50-0-0-31-1-1-1-0-|
  3 Times Then.........

Verse Intro 1 
E:-------------------------|
B:-------------------------|
G:-------------------------|2 Times (1st time guitar 1, 2nd time 
D:-6-5-5-5-6-5-5-5-6-5-6-5-|         both guitars)
A:-6-5-5-5-6-5-5-5-6-5-6-5-|
D:-6-5-5-5-6-5-5-5-6-5-6-5-|

Verse 
E:-------------|                |-----------------|
B:-------------|                |-----------------|
G:-------------|10 times then   |-----------------|
D:-5-5-555-7-8-|                |-x-x-x-x-x-x-x-x-|
A:-5-5-555-7-8-|                |-x-x-x-x-x-x-x-x-|
D:-5-5-555-7-8-|                |–x-x-x-x-x-x-x-x-|

Main Riff
E:-------------------|-------------------|
B:-------------------|-------------------|
G:-------------------|-------------------|2 Times
D:-50-0-0-31-1-0-1-3—|-50-0-0-31-1-1-1-0—|
A:-50-0-0-31-1-0-1-3-|-50-0-0-31-1-1-1-0-|
D:-50-0-0-31-1-0-1-3-|-50-0-0-31-1-1-1-0-|
  7 Times Then.........


Verse Intro 2
Craig drums for a moment by himself
E:-----------------|
B:-----------------|
G:-----------------|2 Times
D:-55-5-5-5-55-7-8-|
A:-55-5-5-5-55-7-8-|
D:-55-5-5-5-55-7-8-|
   \   P.M.  /

Verse
E:-------------|                |-----------------|
B:-------------|                |-----------------|
G:-------------|10 times then   |-----------------|
D:-5-5-555-7-8-|                |-x-x-x-x-x-x-x-x-|
A:-5-5-555-7-8-|                |-x-x-x-x-x-x-x-x-|
D:-5-5-555-7-8-|                |–x-x-x-x-x-x-x-x-|

Main Riff
E:-------------------|-------------------|
B:-------------------|-------------------|
G:-------------------|-------------------|2 Times
D:-50-0-0-31-1-0-1-3—|-50-0-0-31-1-1-1-0—|
A:-50-0-0-31-1-0-1-3-|-50-0-0-31-1-1-1-0-|
D:-50-0-0-31-1-0-1-3-|-50-0-0-31-1-1-1-0-|
  7 Times Then.........

Riff 1
E:-------------------|-------------------------|
B--------------------|-------------------------|
G:-------------------|-------------------------|1 Time
D:-66665555333322-00-|-66665555333322-0-0------|
A:-66665555333322-00-|-66665555333322-0-0------|
D:-66665555333322-00-|-66665555333322-0-0------|
   9 Times	          1 Time	   |- Let whale to feedback

Free Your Mind
Free Your SSSSOOOOUUUUULLL!!!

Main Riff (Come in on Soul)
E:-------------------|-------------------|
B:-------------------|-------------------|
G:-------------------|-------------------|2 Times
D:-50-0-0-31-1-0-1-3—|-50-0-0-31-1-1-1-0—|
A:-50-0-0-31-1-0-1-3-|-50-0-0-31-1-1-1-0-|
D:-50-0-0-31-1-0-1-3-|-50-0-0-31-1-1-1-0-|
  7 Times Then.........

Rape Your Mind.
Why Don’t You Rape Your Mind?

Outro
E:-----------------|         |-----------------|---|
B:-----------------|         |-----------------|---|
G:-----------------|5 Times  |-----------------|---|1 Time
D:-50-0-0-31-1-0-1-|         |-5-5-5-551-1-1-1-|-5-|
A:-50-0-0-31-1-0-1-|         |-5-5-5-551-1-1-1-|-5-|
D:-50-0-0-31-1-0-1-|         |-5-5-5-551-1-1-1-|-5-|
                                                  \
                                                   Finish on this
            
Submit corrections

↑ Back to top | Tablatures and chords for acoustic guitar and electric guitar, ukulele, drums are parodies/interpretations of the original songs. You may use it for private study, scholarship, research or language learning purposes only