» » »

Strunz And Farah - Centellas Tabs

Artists:  A B C D E F G H I J K L M N O P Q R S T U V W X Y Z # 

Centellas Tabs

(ver. 2) Click to play this song!
Strunz And Farah
 Rating:
3/5 (24 votes)

 Centellas  lessons Tabs too difficult? Try these video lessons and learn fast
 
                Tuning: Standard, 3/4, 182bpm

         |       |       |         |       |       |
e|-5-6-|-8-6-5-----------5-------|--------------------------|
B|-----|-------8-6-5-6-8---6-8-5-|-8-6-5-----------5--------|
G|-----|-------------------------|-------7-6-5-6-7---6-7-5--|
D|-----|-------------------------|--------------------------|
A|-----|-------------------------|--------------------------|
E|-----|-------------------------|--------------------------|

  |       |       |         |       |       |
|-------------------------|-------------------------|
|-------------------------|-------------------------|
|-7-6-5-----------5-------|-------------------------|
|-------8-7-5-7-8---7-8-5-|-8-7-5-----------5-------|
|-------------------------|-------8-7-5-7-8---7-8-5-|
|-------------------------|-------------------------|

  |       |       |
|-------------------------|
|-------------------------|
|-------------------------|
|-------------------------|
|-8-7-5-------------------|
|-------6-5~~~------------|

            
Submit corrections


        Centellas  lessons Hard to play? Try these video lessons and learn fast Centellas  lessons
        
↑ Back to top | Tablatures and chords for acoustic guitar and electric guitar, ukulele, drums are parodies/interpretations of the original songs. You may use it for private study, scholarship, research or language learning purposes only