» » »

Strung Out - Matchbook Tabs

Artists:  A B C D E F G H I J K L M N O P Q R S T U V W X Y Z # 

Matchbook Tabs

(ver. 3) Click to play this song!
Strung Out
 Rating:
4/5 (4 votes)

 Matchbook lessons Tabs too difficult? Try these video lessons and learn fast
 
                INTRO 
- Guitar 1 (PALM MUTED) 
e-|--------------------------------------------------------------------------| 
B-|--5---5---8---8---5-------------------------------------------------------| 
G-|----5---5---5---5---5--7--5------5------5---------------------------------| 
D-|-----------------------------5------3-------------------------------------| (x10) 
A-|--------------------------------------------------------------------------| 
E-|--------------------------------------------------------------------------| 

- Guitar 2 
e-|--------------------------------------------------------------------------| 
B-|--------------------------------------------------------------------------| 
G-|--2222222222222222--------------------5555555555555555--------------------| 
D-|--2222222222222222--3333333333333333--5555555555555555--5555555555555555--| (x2) 
A-|--0000000000000000--3333333333333333--3333333333333333--5555555555555555--| 
E-|--------------------1111111111111111--------------------3333333333333333--| 



VERSE 
- Guitar 1 (PALM MUTE 5's) 
e-|-------------------------------------------------------------| 
B-|---------1------5---5--------------5---5---------------------| 
G-|--2------0--------5---5---5---5------5---5---5---5-----------| 
D-|--2------2------------------5---5--------------5---5------5--| (x2) 
A-|--0------3------------------------------------------------5--| 
E-|----------------------------------------------------------3--| 

- Guitar 2 (PALM MUTE 5's) 
e-|-------------------------------------------------------------| 
B-|---------1------5-5-5-5--------------------------------------| 
G-|--2------0----------------5-5-5-5-----------5-5-5-5----------| 
D-|--2------2-------------------------5-5-5-5----------------5--| (x2) 
A-|--0------3------------------------------------------------5--| 
E-|----------------------------------------------------------3--| 



CHORUS 1 
- Both Guitars 
e-|-----------------------------------------------------------------------------------| 
B-|-------------------------1h3-1-----------------------------------------------------| 
G-|--22x2--55xx5-------------------22x2--55555555-------------------------------------| 
D-|--22x2--55xx5--33x3--55---------22x2--55555555--55555555--33333333-----------------| 
A-|--00x0--33xx3--33x3--55---------00x0--33333333--55555555--33333333-----------------| 
E-|---------------11x1--33-------------------------33333333--11111111-----------------| 

e-|-----------------------------------------------------------------------------------| 
B-|-----------------------------------------------------------------------------------| 
G-|--22222222------------55555555--------------22222222--55555555---------------------| 
D-|--22222222--33333333--55555555--5555--3333--22222222--55555555--5xx--3xx--2xxxxxx--| 
A-|--00000000--33333333--33333333--5555--3333--00000000--33333333--5xx--3xx--2xxxxxx--| 
E-|------------11111111------------3333--1111----------------------3xx--1xx--0xxxxxx--| 

e-|-----------------------------------------------------------------------------------| 
B-|-----------------------------------------------------------------------------------| 
G-|-----------2xxxxxx-----------5xxxxxx-----------------------------------------------| 
D-|--3xxxxxx--2xxxxxx--5xxxxxx--5xxxxxx--3--2--5--------------------------------------| 
A-|--3xxxxxx--0xxxxxx--5xxxxxx--3xxxxxx--3--2--5--------------------------------------| 
E-|--1xxxxxx-----------3xxxxxx-----------1--0--3--------------------------------------| 


[INTRO] 


CHORUS 2 
- Both Guitars 
e-|-------------------------------------------------------------------| 
B-|-------------------------1h3-1-------------------------------------| 
G-|--22x2--55xx5-------------------22x2--55555555---------------------| 
D-|--22x2--55xx5--33x3--55---------22x2--55555555--5xx--3xx--2xxxxxx--| 
A-|--00x0--33xx3--33x3--55---------00x0--33333333--5xx--3xx--2xxxxxx--| 
E-|---------------11x1--33-------------------------3xx--1xx--0xxxxxx--| 

e-|-------------------------------------------------------------------| 
B-|-------------------------------------------------------------------| 
G-|-----------2xxxxxx-----------5xxxxxx-------------------------------| 
D-|--3xxxxxx--2xxxxxx--5xxxxxx--5xxxxxx--3--2--5----------------------| 
A-|--3xxxxxx--0xxxxxx--5xxxxxx--3xxxxxx--3--2--5----------------------| 
E-|--1xxxxxx-----------3xxxxxx-----------1--0--3----------------------| 



BRIDGE 
- Guitar 1 
e-|--------------------------------------------------------------------------------| 
B-|--5555-8888-5555-8888-5555-8888-5555-8888-5555-8888-5555-8888-------------------| 
G-|--5555-5555-5555-5555-5555-5555-5555-5555-5555-5555-5555-5555--5-4-2-4-5/-------| 
D-|--5555-5555-5555-5555-5555-5555-5555-5555-5555-5555-5555-5555-------------------| 
A-|--------------------------------------------------------------------------------| 
E-|--------------------------------------------------------------------------------| 

e-|--------------------------------------------------------------------------------| 
B-|--5555-8888-5555-8888-5555-8888-5555-8888-5555-8888-5555-8888-------------------| 
G-|--5555-5555-5555-5555-5555-5555-5555-5555-5555-5555-5555-5555-------------------| 
D-|--5555-5555-5555-5555-5555-5555-5555-5555-5555-5555-5555-5555-------------------| 
A-|--------------------------------------------------------------------------------| 
E-|--------------------------------------------------------------------------------| 

- Guitar 2 
e-|--------------------------------------------------------------------------------| 
B-|--------------------------------------------------------------------------------| 
G-|------------55555555--22222222----------------------55555555--------------------| 
D-|--33333333--55555555--22222222--55555555--33333333--55555555--5555555555555555--| 
A-|--33333333--33333333--00000000--55555555--33333333--33333333--5555555555555555--| 
E-|--11111111----------------------33333333--11111111------------3333333333333333--| 

e-|--------------------------------------------------------------------------------| 
B-|--------------------------------------------------------------------------------| 
G-|------------55555555--22222222--------------------------------------------------| 
D-|--33333333--55555555--22222222--55555555--33333333--55555555--------------------| 
A-|--33333333--33333333--00000000--55555555--33333333--55555555--------------------| 
E-|--11111111----------------------33333333--11111111--33333333--------------------| 


[INTRO] 


BREAKDOWN 
- BOTH GUITARS 
e-|------------------------------------| 
B-|------------------------------------| 
G-|--xxx2------------------------------| 
D-|--xxx2----xxx3----------------------| 
A-|--xxx0----xxx3----------------------| 
E-|----------xxx1----------------------| 

- Guitar 1 
e-|------------------------------------| 
B-|--55-5---66-6---88-8---66-6---8888--| 
G-|--55-5---55-5---55-5---55-5---5555--| 
D-|--55-5---55-5---55-5---55-5---5555--| 
A-|------------------------------------| 
E-|------------------------------------| 

- Guitar 2 
e-|------------------------------------| 
B-|------------------------------------| 
G-|--5555555555555555------------------| 
D-|--5555555555555555--xxx5------------| 
A-|--3333333333333333--xxx5------------| 
E-|--------------------xxx3------------| 



SKA PART 
- Guitar 1 
e-|-----------------------------------------------| 
B-|--3-3-3-3---5-5-5-5---8-8-8-8-8-8-8-8----------| 
G-|--5-5-5-5---5-5-5-5---5-5-5-5-5-5-5-5----------| 
D-|--5-5-5-5---5-5-5-5---5-5-5-5-5-5-5-5----------| (x2) 
A-|-----------------------------------------------| 
E-|-----------------------------------------------| 

- Guitar 1 
e-|-----------------------------------------------| 
B-|-----------------------------------------------| 
G-|--xxxxxxx2------------xxxxxxx5-----------------| 
D-|--xxxxxxx2--xxxxxxx3--xxxxxxx5--xxxxxxx5-x5-5--| 
A-|--xxxxxxx0--xxxxxxx3--xxxxxxx3--xxxxxxx5-x5-5--| 
E-|------------xxxxxxx1------------xxxxxxx3-x3-3--| 

e-|-----------------------------------------------| 
B-|-----------------------------------------------| 
G-|--xxxxxxx2------------xxxxxxx5-----------------| 
D-|--xxxxxxx2--xxxxxxx3--xxxxxxx5--xxxxxxx5-------| 
A-|--xxxxxxx0--xxxxxxx3--xxxxxxx3--xxxxxxx5-------| 
E-|------------xxxxxxx1------------xxxxxxx3-------| 



OTHER PART 
- Both Guitars 
e-|--------------------------------------------------------------------------| 
B-|--------------------------------------------------------------------------| 
G-|--2222222222222222--------------------5555555555555555--------------------| 
D-|--2222222222222222--3333333333333333--5555555555555555--5555555555555555--| (x2) 
A-|--0000000000000000--3333333333333333--3333333333333333--5555555555555555--| 
E-|--------------------1111111111111111--------------------3333333333333333--| 



OUTRO 
- Guitar 1 
e-|--------------------------------------------------------------------------| 
B-|--111111111111111-----------------------------------3-0-3-0---------------| 
G-|--222222222222222-55555555555555555555555555555555--0-0-0-0---------------| 
D-|--222222222222222-xxxxxxxxxxxxxxxxxxxxxxxxxxxxxxxx------------------------| (x2) 
A-|--000000000000000-33333333333333333333333333333333------------------------| 
E-|--------------------------------------------------------------------------| 

e-|--------------------------------------------------------------------------| 
B-|--00-11-00-11-00-11-00-11--33-11-33-11-33-00-33-00------------------------| 
G-|--00-00-00-00-00-00-00-00--00-00-00-00-00-00-00-00------------------------| 
D-|--------------------------------------------------------------------------| (x4) 
A-|--------------------------------------------------------------------------| 
E-|--------------------------------------------------------------------------| 

- Guitar 2 
e-|--------------------------------------------------------------------------| 
B-|--------------------------------------------------------------------------| 
G-|--2222222222222222--------------------5555555555555555--------------------| 
D-|--2222222222222222--3333333333333333--5555555555555555--5555555555555555--| (x6) 
A-|--0000000000000000--3333333333333333--3333333333333333--5555555555555555--| 
E-|--------------------1111111111111111--------------------3333333333333333--|
            
Submit corrections


        Matchbook lessons Hard to play? Try these video lessons and learn fast Matchbook lessons
        
↑ Back to top | Tablatures and chords for acoustic guitar and electric guitar, ukulele, drums are parodies/interpretations of the original songs. You may use it for private study, scholarship, research or language learning purposes only