Home » S » Strokes »

Strokes - The Modern Age Tabs

Artists:  A B C D E F G H I J K L M N O P Q R S T U V W X Y Z # 

The Modern Age Tabs

(ver. 2) Click to play this song!
Strokes
 Rating:
4/5 (4 votes)
                #



THE MODERN AGE
THE STROKES


STANDARD TUNNING


e|---------------------------------------------|
B|---------------------------------------------|
G|---------------------------------------------|
D|-----9-9-9-9-9-9--7-7-7-7-7-7----------------|   X2
A|-----5-5-5-5-5-5--5-5-5-5-5-5----------------|
E|---------------------------------------------|


e|---------------------------------------------|
B|---------------------------------------------|
G|---------------------------------------------|
D|---------------------------------------------|   X2
A|-----7-7-7-7-7-7--5-5-5-5-5-5----------------|
E|-----3-3-3-3-3-3--3-3-3-3-3-3----------------|
 

JUST REPEAT OVER AND OVER.


PIECE OF CAKE! AND A GREAT SONG TO
TO GET THE TIMING RIGHT, HEAR THE SONG FIRST.
            
Submit corrections

↑ Back to top | Tablatures and chords for acoustic guitar and electric guitar, ukulele, drums are parodies/interpretations of the original songs. You may use it for private study, scholarship, research or language learning purposes only