Home » S » Strokes »

Strokes - The Modern Age Tabs

Artists:  A B C D E F G H I J K L M N O P Q R S T U V W X Y Z # 

The Modern Age Tabs

(ver. 1) Click to play this song!
Strokes
 Rating:
4/5 (4 votes)
                PROPS GO TO: B.Chamberlain

Cool song with a little neat solo. Enjoy!

Tuning:Standard(eBGDAE)

Intro:

e|------------------------|
B|-7--7--7--7--5--5--5--5-|
G|-7--7--7--7--7--7--7--7-| 
D|-7--7--7--7--7--7--7--7-|
A|-7--7--7--7--7--7--7--7-|
E|------------------------|

Verse:

e|------------------------|
B|-7--7--7--7--5--5--5--5-|
G|-7--7--7--7--7--7--7--7-|
D|-7--7--7--7--7--7--7--7-| 
A|-7--7--7--7--7--7--7--7-|
E|------------------------|

Pre-Chorus:

e|-----------------|
B|-3-3-3-3-3-3-3-3-|
G|-4-4-4-4-4-4-4-4-|
D|-5-5-5-5-5-5-5-5-|
A|-----------------|
E|-----------------|

Chorus:

e|-------------------------------------------------------------------
B|-7-7-7-7-7-7-7-7-7-7-7-7-7-7-7-7-7-8-8-8-8-8-8-8-8-8-8-8-8-8-8-8-8-
G|-7-7-7-7-7-7-7-7-7-7-7-7-7-7-7-7-7-7-7-7-7-7-7-7-7-7-7-7-7-7-7-7-7-
D|-7-7-7-7-7-7-7-7-7-7-7-7-7-7-7-7-7-7-7-7-7-7-7-7-7-7-7-7-7-7-7-7-7-
A|-7-7-7-7-7-7-7-7-7-7-7-7-7-7-7-7-7-7-7-7-7-7-7-7-7-7-7-7-7-7-7-7-7-
E|-------------------------------------------------------------------

e|-------------------------------------------------------------------|
B|-7-7-7-7-7-7-7-7-7-7-7-7-7-7-7-7-7-5-5-5-5-5-5-5-5-5-5-5-5-5-5-5-5-|
G|-7-7-7-7-7-7-7-7-7-7-7-7-7-7-7-7-7-7-7-7-7-7-7-7-7-7-7-7-7-7-7-7-7-|
D|-7-7-7-7-7-7-7-7-7-7-7-7-7-7-7-7-7-7-7-7-7-7-7-7-7-7-7-7-7-7-7-7-7-| End of Chorus
A|-7-7-7-7-7-7-7-7-7-7-7-7-7-7-7-7-7-7-7-7-7-7-7-7-7-7-7-7-7-7-7-7-7-|
E|-------------------------------------------------------------------|

Solo:

e|-----------------------------------------------------------------------------------
B|-----------------------------------------------------------------------------------
G|-12b-12b-12b-12b-12b-10----10-12-12-12b-10----10-12-12-12b-12-12b-12-12b-12-12b-10-
D|------------------------12-----------------12--------------------------------------
A|-----------------------------------------------------------------------------------
E|-----------------------------------------------------------------------------------

e|-----------------------------------------------------------------------------------
B|-----------------------------------------------------------------------------------
G|----10-12--------------------------------------------------------------------------
D|-12-------12-12-12-12-12-12-12-12-12-0-10-0-7-0-5-0-3-0-3-0-5-0-7-12-0-10-0-7-0-5--
A|-----------------------------------------------------------------------------------
E|-----------------------------------------------------------------------------------

e|-------------------------------------------------------------------------------------
B|-------------------------------------------------------------------------------------
G|---------------------------------------------------------12-0-10-0-7-0-5-0-4-0-4-0-5-
D|-0-5-0-3-0-3-0-5-0-7-0-12-0-10-0-7-0-5-0-3-0-3-0-5-0-7-0-----------------------------
A|-------------------------------------------------------------------------------------
E|-------------------------------------------------------------------------------------

e|--------------------------------------------------------------------------------|
B|----------------------------------------------------------------14b-14b-14b-----|
G|-0-7-0-12-0-10-0-7-0-5-0-4-0-4-0-5-0-7-12b-12b-12-12b-12-12b-12-------------12b-|End
D|---------------------------------------12b--------------------------------------|of
A|--------------------------------------------------------------------------------|Solo
E|--------------------------------------------------------------------------------|

Thanks!**
            
Submit corrections

↑ Back to top | Tablatures and chords for acoustic guitar and electric guitar, ukulele, drums are parodies/interpretations of the original songs. You may use it for private study, scholarship, research or language learning purposes only