Home » S » Strokes »

Strokes - Meet Me In The Bathroom Bass

Artists:  A B C D E F G H I J K L M N O P Q R S T U V W X Y Z # 

Meet Me In The Bathroom Bass

(ver. 1) Click to play this song!
Strokes
 Rating:
4/5 (4 votes)
                (1)
G:------------------------------------------------------
D:5-----5~-----5-----5~---------------------------------
A:--7-5----7-5---7-5----7-5-3-----3~-----3-----3~-------
E:----------------------------5-3----5-3---5-3----5-3---

G:------------------------ (x2)
D:------9(x8)-7(x8)-5(x8)-
A:3(x8)-------------------
E:------------------------

	(x5)
G:--------|--------------------------
D:-------*|--------------------------
A:5(x8)--*|-5-5-5-5-5-5-7-9-10(x32)--
E:--------|--------------------------

G:--------------------
D:--------------------
A:--------------5(x2)-
E:-8(x16)-5(x2)-------

drop out for guitar solo

G:------------------------------------------------------ (x4)
D:5-----5~-----5-----5~---------------------------------
A:--7-5----7-5---7-5----7-5-3-----3~-----3-----3~-------
E:----------------------------5-3----5-3---5-3----5-3---

G:------------------------ (x2)
D:------9(x8)-7(x8)-5(x8)-
A:3(x8)-------------------
E:------------------------

	(x5)
G:--------|--------------------------
D:-------*|--------------------------
A:5(x8)--*|-5-5-5-5-5-5-7-9-10(x32)--
E:--------|--------------------------

G:--------------------
D:--------------------
A:--------------5(x2)-
E:-8(x16)-5(x2)-------

bass drops out again

G:------------------------------------------------------ (x2)
D:5-----5~-----5-----5~---------------------------------
A:--7-5----7-5---7-5----7-5-3-----3~-----3-----3~-------
E:----------------------------5-3----5-3---5-3----5-3---

G:---------------
D:5~-5~-2---2-5~-
A:--------3------
E:---------------

if you have any comments or corrections, please e-mail me at
            
Submit corrections

↑ Back to top | Tablatures and chords for acoustic guitar and electric guitar, ukulele, drums are parodies/interpretations of the original songs. You may use it for private study, scholarship, research or language learning purposes only