Home » S » Strokes »

Strokes - Meet Me In The Bathroom Bass

Artists:  A B C D E F G H I J K L M N O P Q R S T U V W X Y Z # 

Meet Me In The Bathroom Bass

(ver. 2) Click to play this song!
Strokes
 Rating:
4/5 (4 votes)
                
Intro
G|----------------------------------------------------|
D|-5-----5------5-----5-------------------------------|
A|--7-5----7-5---7-5----7-5--3-----3------3-----3-----|
E|----------------------------5-3----5-3---5-3----5-3-|

Verse
G|----------------------------------|
D|---------55555555-----------------|
A|-----------------7777777733333333-|
E|-33333333-------------------------|(2x)

G|--------------------------------------------------------------------------|
D|--------------------------------------------------------------------------|
A|------------------------------------------------------55555555555555555555|
E|5555555555555555555555555555555555555555555555555-3-5---------------------|
(Cont. Line 2)
G|------------|
D|------------|
A|555555555555|
E|------------|

G|------------------------------------------------|
D|------------------------------------------------|
A|3333333333333333----------------5555555555555555|
E|----------------5555555555555555----------------|

Bride: **REST**

Outro
G|-----------------------------|
D|5~~~~~~~5~~~~~~~-----5~~~~~~~|
A|----------------7-\-3--------|
E|-----------------------------|

Order:
Intro
Verse
Bridge **REST**
Intro(4x)
Verse
Bridge **REST**
Intro(2x)
Outro
            
Submit corrections

↑ Back to top | Tablatures and chords for acoustic guitar and electric guitar, ukulele, drums are parodies/interpretations of the original songs. You may use it for private study, scholarship, research or language learning purposes only