» » »

Story Of The Year - Terrified Bass

Artists:  A B C D E F G H I J K L M N O P Q R S T U V W X Y Z # 

Terrified Bass

(ver. 2) Click to play this song!
Story Of The Year
 Rating:
4/5 (4 votes)

 Terrified lessons Tabs too difficult? Try these video lessons and learn fast
 
                Story of The Year
Terrified Bass Tab

This is my first tab so PLEASE let me know how i did by rating this.
Awesome song by Story of the Year so enjoy!

Standard Tuning

Verse 1:
G|-------------|
D|-------------|
A|-4--7--0-----|
E|----------7--|   x2

Pre-verse:
|-------------|
|-------------|
|-0--2--0--2--|
|-------------|

Chorus:
|-------------|-------------|-------------|
|-------------|-------------|-------------|
|-7--4--7-----|-7--4--------|-------7--7--|
|----------5--|-------5--7--|-5--7--------|

Verse 2:
|-----------------------------------------------------------------|
|-----------------------------------------------------------------|
|-4-4-4-4-4-4-4-4-7-7-7-7-7-7-7-7-0-0-0-0-0-0-0-0-----------------|
|-------------------------------------------------7-7-7-7-7-7-7-7-|  x2

Pre-verse:
|-----------------------------------------------------------------|
|-----------------------------------------------------------------|
|-----------------------------------------------------------------|
|-5-5-5-5-5-5-5-5-7-7-7-7-7-7-7-7-5-5-5-5-5-5-5-5-7-7-7-7-7-7-7-7-|

Chorus:
|-----------------------------------------------------------------|
|-----------------------------------------------------------------|
|-7-7-7-7-7-7-7-7-4-4-4-4-4-4-4-4-7-7-7-7-7-7-7-7-----------------|
|-------------------------------------------------5-5-5-5-5-5-5-5-|

|-----------------------------------------------------------------|
|-----------------------------------------------------------------|
|-7-7-7-7-7-7-7-7-4-4-4-4-4-4-4-4---------------------------------|
|---------------------------------5-5-5-5-5-5-5-5-7-7-7-7-7-7-7-7-|

|---------------------------------|
|---------------------------------|
|---------------------------------|
|-5-5-5-5-5-5-5-5-7-7-7-7-7-7-7-7-|

Bridge:
|-----------------------------------------------------------------|
|-----------------------------------------------------------------|
|-4-4-4-4-4-4-4-4-7-7-7-7-7-7-7-7-0-0-0-0-0-0-0-0-2-2-2-2-2-2-2-2-|
|-----------------------------------------------------------------|

|--------------------------------------------------------------------|
|--------------------------------------------------------------------|
|-4-4-4-4-4-4-4-4-7-7-7-7-7-7-7-7-0-0-0-0-0-0-0-0-0-0-0-0------------|
|---------------------------------------------------------4-4-4-4/12-|

No bass at 2:26

Chorus:
|-----------------------------------------------------------------|
|-----------------------------------------------------------------|
|-7-7-7-7-7-7-7-7-4-4-4-4-4-4-4-4-7-7-7-7-7-7-7-7-----------------|
|-------------------------------------------------5-5-5-5-5-5-5-5-|

|-----------------------------------------------------------------|
|-----------------------------------------------------------------|
|-7-7-7-7-7-7-7-7-4-4-4-4-4-4-4-4---------------------------------|
|---------------------------------5-5-5-5-5-5-5-5-7-7-7-7-7-7-7-7-|
play both sections again
then:
|-----------------------------------------------------------------------|
|-----------------------------------------------------------------------|
|---------------------------------------------------------------------7-|
|-5-5-5-5-5-5-5-5-7-7-7-7-7-7-7-7-5-5-5-5-5-5-5-5-7-7-7-7/19-19-19-19---|

That's about it! Really easy to play. Have fun.
            
Submit corrections


        Terrified lessons Hard to play? Try these video lessons and learn fast Terrified lessons
        
↑ Back to top | Tablatures and chords for acoustic guitar and electric guitar, ukulele, drums are parodies/interpretations of the original songs. You may use it for private study, scholarship, research or language learning purposes only