» » »

Story Of The Year - Terrified Bass

Artists:  A B C D E F G H I J K L M N O P Q R S T U V W X Y Z # 

Terrified Bass

(ver. 1) Click to play this song!
Story Of The Year
 Rating:
4/5 (4 votes)

 Terrified lessons Tabs too difficult? Try these video lessons and learn fast
 
                0:28
F|-----------------------------------------------------------------|
C|-----------------------------------------------------------------|
G|-2---------------4---------------2---------------4---------------|
C|-----------------------------------------------------------------|

0:32
F|-----------------------------------------------------------------|
C|-----------------------------------------------------------------|
G|-9---------------6---------------9---------------2-----------2-/-|
C|-----------------------------------------------------------------|

F|-----------------------------------------------------------------|
C|-----------------------------------------------------------------|
G|-9---------------6---------------2---------------4---------------|
C|-----------------------------------------------------------------|

F|-----------------------------------------------------------------|
C|-----------------------------------------------------------------|
G|-2---------------4---------------9-------------------------------|
C|-----------------------------------------------------------------|

1:02
F|-----------------------------------------------------------------|
C|-----------------------------------------------------------------|
G|-6--66-6---6-6---2--22-2---2-2-/-9--99-9-9-9-9-9\4--44-4---898-4-|
C|-----------------------------------------------------------------|

1:13
F|-----------------------------------------------------------------|
C|-----------------------------------------------------------------|
G|-6--66-6---8-9-4-2--22-2---2-2-/-9-------------9\4--44-4---4-9---|
C|------------------------------------44-4---4-4-------------------|

1:23
F|---------------------------------------------------------------------|
C|---------------------------------------------------------------------|
G|-2-2-2-2---2-2-2-4-4-4-4---4-4-4-2-2-2-2---2-2-2-4-4-4-4/16-16-16\-/-|
C|---------------------------------------------------------------------|
1:34
F|-----------------------------------------------------------------|
C|-----------------------------------------------------------------|
G|-9---9-9---9-9-9-6---6-6---6-6-6-9---9-9---9-9-9-2---2-2---2-2/8-|
C|-----------------------------------------------------------------|

1:46
F|-----------------------------------------------------------------|
C|-----------------------------------------------------------------|
G|-9--99-9---9-9-9-6--66-6---6-6-4-2--22-2---2-2-2-4--44-4---4-4-0-|
C|-----------------------------------------------------------------|

F|---------------------------------|
C|---------------------------------|
G|-2--22-2---2-2-2-4---4---4---4---|
C|---------------------------------|

2:02
F|-------------------------------------------------------------------|
C|-------------------------------------------------------------------|
G|-6---6-6---6-6-6-9---9-9---9-9-9-2---2-2---2-2-2-4---4-4-9-8-4-6p4-|
C|-------------------------------------------------------------------|

2:14
F|----------------------------------------------------------------------|
C|-----------------------------------------9-9-9-9----------------------|
G|-6--66-6---6-6-689--99-9---9-9-9-----------------1--11-1/13-13-13-13\-|
C|---------------------------------9--99-9------------------------------|

2:26
F|-----------------------------------------------------------------|
C|-----------------------------------------------------------------|
G|-6-------------\-2-----------2-/-9-------------\-4---------------|
C|-----------------------------------------------------------------|

2:38
F|--------------------------------------------------------------------|
C|--------------------------------------------------------------------|
G|-9--99-9---9-9-8-6--66-6---6-6-8-9--99-9---9-9-4-2----/14-\2---2462-|
C|--------------------------------------------------------------------|

F|----------------------------------------------------------------------|
C|---------------------------------------------------------/11-11-1197--|
G|-9--99-9---9-9-8-6--66-6---6-6-4-2--22-2---2-2-2-4--44-4------------8-|
C|----------------------------------------------------------------------|
2:57
F|---------------------------8---8---------------------4---4--------|
C|------------------------------------------------------------------|
G|-----------------6--66-6-6---6-------------------2-----2---2-2462-|
C|-4--44-4---4-4-4-----------------4--44-4---4-4-4------------------|

3:09
F|-----------------------------------------------------------------|
C|-----------------------------------------------------------------|
G|---------------------------------2--22-2---2-2-2-4--44-4---4-4-/-|
C|-4--44-4---4-4-3-1--11-1---1-1-1---------------------------------|

3:21
F|--------------------------------------------------------------------|
C|--------------------------------------------------------------------|
G|-14---14-14---14-14-14--16---16-16---16-16-16-14---14-14---14-14-14-|
C|--------------------------------------------------------------------|

F|-----------------------------------|
C|-----------------------------------|
G|-16-16-16-16-4-4-4-4---------------|
C|---------------------4-------------|
            
Submit corrections


        Terrified lessons Hard to play? Try these video lessons and learn fast Terrified lessons
        
↑ Back to top | Tablatures and chords for acoustic guitar and electric guitar, ukulele, drums are parodies/interpretations of the original songs. You may use it for private study, scholarship, research or language learning purposes only