Home » S » Story Of The Year »

Story Of The Year - Sleep Tabs

Artists:  A B C D E F G H I J K L M N O P Q R S T U V W X Y Z # 

Sleep Tabs

(ver. 2) Click to play this song!
Story Of The Year
 Rating:
4/5 (4 votes)
                Sleep by Story Of The Year
sounds pretty good to me and no one has done it yet so here you go

intro solo (1:32)

E-----------------------------------------------------------------|
B---------------------------------------9h11h12-11-9-7~-9---------|
G---6H8~-----------4----------------------------------------7--7--|
D---------8h9p8-4-------11-9-8-9~---------------------------------|
A-----------------------------------------------------------------|
E-----------------------------------------------------------------|

verse (2:05)
     (13)   (16)    (15)    (12)
E-----------------------------------------------------------------|
B-----------------------------------------------------------------|
G--13131313161616161515151512121212-------------------------------|     x7
D--X-X-X-X-X-X-X-X-X-X-X-X--X-X-X-X-------------------------------|
A--11111111141414141313131310101010-------------------------------|
E-----------------------------------------------------------------|


(2:22)
E-----------------------------------------------------------------|
B-----------------------------------------------------------------|
G--13131313141414141515151515151515-------------------------------|     x1
D--X-X-X-X-X-X-X-X-X-X-X-X-X-X-X-X--------------------------------|
A--11111111121212121313131313131313-------------------------------|
E-----------------------------------------------------------------|


chorus (2:24)

E-----------------------------------------------------------------|
B-----------------------------------------------------------------|
G--13--131313-------151515-------161616---------------------------| 
D--X---X-X-X---x8---X-X-X---x3---X-X-X--x3------------------------|
A--11--111111-------131313-------141414---------------------------|
E-----------------------------------------------------------------|

(2:34)
E-----------------------------------------------------------------|
B-----------------------------------------------------------------|
G--13--131313-----------------------------------------------------| 
D--X---X-X-X---x8-------------------------------------------------|
A--11--111111-----------------------------------------------------|
E-----------------------------------------------------------------|


verse (3:02)

E-----------------------------------------------------------------|
B-----------------------------------------------------------------|
G--13131313161616161515151512121212-------------------------------|     x7
D--X-X-X-X-X-X-X-X-X-X-X-X-X-X-X-X--------------------------------|
A--11111111141414141313131310101010-------------------------------|
E-----------------------------------------------------------------|
 
(3:19)
E-----------------------------------------------------------------|
B-----------------------------------------------------------------|
G--13131313141414141515151515151515-------------------------------|     x1
D--X-X-X-X-X-X-X-X-X-X-X-X-X-X-X-X--------------------------------|
A--11111111121212121313131313131313-------------------------------|
E-----------------------------------------------------------------|

(3:22)
E-----------------------------------------------------------------|
B-----------------------------------------------------------------|
G--13--131313-------151515-------161616---------------------------|     X2
D--X---X-X-X---x8---X-X-X---x3---X-X-X--x3------------------------|
A--11--111111-------131313-------141414---------------------------|
E-----------------------------------------------------------------|


verse (3:40)

E-----------------------------------------------------------------|
B-----------------------------------------------------------------|
G--13131313161616161515151512121212-------------------------------|     x6
D--X-X-X-X-X-X-X-X-X-X-X-X-X-X-X-X--------------------------------|
A--11111111141414141313131310101010-------------------------------|
E-----------------------------------------------------------------|


 (3:54)

E-----------------------------------------------------------------|
B-----------------------------------------------------------------|
G--13131313--------16161616---------------------------------------|     
D--X-X-X-X---X4----X-X-X-X---x4-----------------------------------|
A--11111111--------14141414---------------------------------------|
E-----------------------------------------------------------------|
            
Submit corrections

↑ Back to top | Tablatures and chords for acoustic guitar and electric guitar, ukulele, drums are parodies/interpretations of the original songs. You may use it for private study, scholarship, research or language learning purposes only