» » »

Story Of The Year - Sleep Bass

Artists:  A B C D E F G H I J K L M N O P Q R S T U V W X Y Z # 

Sleep Bass

(ver. 1) Click to play this song!
Story Of The Year
 Rating:
4/5 (4 votes)

 Sleep lessons Tabs too difficult? Try these video lessons and learn fast
 
                -----------------------------------------------------------------------------
			     Sleep - Story of the Year
-----------------------------------------------------------------------------


Tuning: D,A,D,G

0:04
G|-------------|
D|-------------|
A|-------------|
D|---4-4/6~----|

G|-------------------------------------|    
D|-------------------------------------|    
A|-------------------------------------|    
D|---6-66-6--6-66-6--4-44-4--4-44-4----|X2  

G|----------------------------------------------------|
D|----------------------------------------------------|
A|----------------------------------------------------|
D|----2-22-2--2-22-2--4-44-4--4-44-4--6~--------------|

0:42
G|--------------------------------------------------------------------------|
D|--------------------------------------------------------------------------|
A|--------------------------------------------------------------------------|
D|--6-66-6--6-66-6--4-44-4--4-44-4--2-22-2--2-22-2--4-44-4--4-44-4--6~--6~--|

1:06
G|------------------------------------------------------------------------|
D|------------------------------------------------------------------------|
A|--------------------------------66666666--------------------------------|
D|--22222222--66666666--44444444-----------22222222--6666666--44444444----|

G|--------------------------|
D|--------------------------|
A|--------------------------|
D|--11111111--2222-4444-6~--|

1:32
G|-------------------------------------|    
D|-------------------------------------|    
A|-------------------------------------|    
D|---6-66-6--6-66-6--4-44-4--4-44-4----|X2  

G|----------------------------------------------------|
D|----------------------------------------------------|
A|----------------------------------------------------|
D|----2-22-2--2-22-2--4-44-4--4-44-4--6~--6~----------|

2:05
G|------------------------------------------------------------------------|
D|------------------------------------------------------------------------|
A|--------------------------------66666666--------------------------------|
D|--22222222--66666666--44444444-----------22222222--6666666--44444444----|

G|-------------------------------------------------------------------------|
D|-------------------------------------------------------------------------|
A|-66666666----------------------------------------------------------------|
D|----------22222222--44444444--66666666--44444444--22222222--44444444--6~-|

2:43
G|------------------------------------------------------------------------|
D|------------------------------------------------------------------------|
A|------------------------------------------------------------------------|
D|--22-2-22-2-44-4-44-4-66-6-66-6-44-4-44-4-22222222--44444444--66666666--|

G|-------------|
D|-------------|
A|-------------|
D|--44444444---|

3:02
G|------------------------------------------------------------------------|
D|------------------------------------------------------------------------|
A|--------------------------------66666666--------------------------------|
D|--22222222--66666666--44444444-----------22222222--6666666--44444444----|

G|-------------------------------------------------------------------------|
D|-------------------------------------------------------------------------|
A|-------------------------------------------------------------------------|
D|--11111111--22222222--44444444--66666666--44444444--22222222--44444444---|

G|-------------------------------------------------------------------------|
D|-------------------------------------------------------------------------|
A|-------------------------------------------------------------------------|
D|--66666666--44444444--22222222--44444444--66666666--44444444--22222222---|

G|--------------------------------------|
D|--------------------------------------|
A|--------------------------------------|
D|--44444444--66666666--44444444--6~----|

| /  slide up
| \  slide down
| h  hammer-on
| p  pull-off
| ~  vibrato
| +  harmonic
| x  Mute note
===============================================================================
            
Submit corrections


        Sleep lessons Hard to play? Try these video lessons and learn fast Sleep lessons
        
↑ Back to top | Tablatures and chords for acoustic guitar and electric guitar, ukulele, drums are parodies/interpretations of the original songs. You may use it for private study, scholarship, research or language learning purposes only