» » »

Story Of The Year - "Is This My Fate," He Asked Them Tabs

Artists:  A B C D E F G H I J K L M N O P Q R S T U V W X Y Z # 

"Is This My Fate," He Asked Them Tabs

(ver. 3) Click to play this song!
Story Of The Year
 Rating:
4/5 (4 votes)

  Tabs too difficult? Try these video lessons and learn fast
 
                "(2)
Tuning: (Eb-bb-eb-G-B-E)

Great new Album.  I suggest you buy it.

. - palm mute
~ - ring out


intro (Guitar 1) distortion

e |----------------------------------------------|
b |----------------------------------------------|  
g |-0-0-0-0-0--0--0------------------------------| with affect
eb|-0-0-0-0-0--0--0------------------------------| 
bb|-0-0-0-0-0--0--0------------------------------| 
Eb|-0-0-0-0-0--0--0------------------------------|

 

verse Guitar:  distortion  (really fast)

e |------------------------------------------------------------|
b |------------------------------------------------------------|
g |------------------------------------------------------------|
eb|------------------------------------------------------------|  play 4x
bb|--0-3h5-0-3h5-0-3-0-3h5-0-3h5-0-3-0-3h5-0-3h5-0-0-3-2-1-0---|
Eb|--0-----0-----0---0-----0-----0---0-----0-----0-0-3-2-1-0---|
     .     .     .   .     .     .   .     .     . . 
verse (guitar 1) clean

e |----------------------------------------------------| 
b |----------------------------------------------------| 
g |----------------------------------------------------| 
eb|-0--0-0-0--0-0-0--0-0-0--0-0-0--0-0-9/5-0-0-2/3/2---|
bb|-0--0-0-0--0-0-0--0-0-0--0-0-0--0-0-7/3-0-0-0/1/0---|
Eb|-0--0-0-0--0-0-0--0-0-0--0-0-0--0-0-----0-0---------|
    .  . . .  . . .  . . .  . . .  . .     . . 

e |----------------------------------------------------||-----------| 
b |----------------------------------------------------||-----------|
g |----------------------------------------------------||-----------|
eb|---0-0-0--0-0-0--0-0-9/5-0-0-9/5--0-0-9/5-0-0-3/5---||--5-4-3-2--|
bb|---0-0-0--0-0-0--0-0-7/3-0-0-7/3--0-0-7/3-0-0-1/3---||--3-2-1-0--|
Eb|---0-0-0--0-0-0--0-0-----0-0------0-0-----0-0-------||-----------|
      . . .  . . .  . .     . .      . .     . .         seond time
    
verse Guitar  distortion  (really fast)

e |------------------------------------------------------------|
b |------------------------------------------------------------|
g |------------------------------------------------------------|
eb|------------------------------------------------------------|  play 4x
bb|--0-3h5-0-3h5-0-3-0-3h5-0-3h5-0-3-0-3h5-0-3h5-0-0-3-2-1-0---|
Eb|--0-----0-----0---0-----0-----0---0-----0-----0-0-3-2-1-0---|
     .     .     .   .     .     .   .     .     . . 

e |---------------|
b |---------------|
g |---------------|
eb|-0-0-0--0-0-0--| (Before chorus)
bb|-0-0-0--0-0-0--|
Eb|-0-0-0--0-0-0--|
    . . .  . . .

chorus guitar distortion
e |--------------------------------------------------------------------|
b |--------------------------------------------------------------------|
g |--------------------------------------------------------------------|
eb|--------------------------------------------------------------------| 
bb|---12-12-12-12--15-15-15-15--14-14-14-14--8-8-8-8--10-10-10-10------|
Eb|---12-12-12-12--15-15-15-15--14-14-14-14--8-8-8-8--10-10-10-10------|


e |-------------------------------------------------------------------|
b |-------------------------------------------------------------------|
g |-------------------------------------------------------------------|
eb|-------------------------------------------------------------------| 
bb|----0-0000-0-0000-0-0000-0-0000-8-8-8-8--10-10-10-10--12-12-12-12--|
Eb|----0-0000-0-0000-0-0000-0-0000-8-8-8-8--10-10-10-10--12-12-12-12--|
         ....   .... . ....   ....

e |----------------------------------------------------------------------|
b |----------------------------------------------------------------------|
g |----------------------------------------------------------------------|
eb|----------------------------------------------------------------------| 
bb|--15-15-15-15--14-14-14-14-8-8-8-8--10-10-10-10--0-0000-0-0000-0-0000-|
Eb|--15-15-15-15--14-14-14-14-8-8-8-8--10-10-10-10--0-0000-0-0000-0-0000-|
                                                      ....   ....   ....
e |-------------------------------------------------------------------|
b |-------------------------------------------------------------------|
g |-------------------------------------------------------------------|
eb|-------------------------------------------------------------------| 
bb|-0-0000-8-8-8-8--10-10-10-10--12-12-12-12---------0--0--0----------|
Eb|-0-0000-8-8-8-8--10-10-10-10--12-12-12-12---------0--0--0----------|
      ....                       
verse
e |----------------------------------------------------------------|
b |----------------------------------------------------------------|
g |----------------------------------------------------------------|
eb|---------5/7---7--------5/7---7--------5/7---7--------5/7---7---|  
bb|--00000--3/5-0-5-00000--3/5---5-00000--3/5-0-5-00000--3/5-0-5---|
Eb|--00000------0---00000------0---00000------0---00000------0-----|
     .....      .   .....      .   .....      .   .....      .   

verse
e |----------------------------------------------------------------|
b |----------------------------------------------------------------|
g |----------------------------------------------------------------|
eb|---------5/7---7--------5/7---7--------5/7---7--------5-4-3-2---|  
bb|--00000--3/5-0-5-00000--3/5---5-00000--3/5-0-5-00000--3-2-1-0---|
Eb|--00000------0---00000------0---00000------0---00000------------|
    .....       .   .....      .   .....     .    .....       

verse Guitar  distortion  (really fast)

e |------------------------------------------------------------|
b |------------------------------------------------------------|
g |------------------------------------------------------------|
eb|------------------------------------------------------------|  play 2x
bb|--0-3h5-0-3h5-0-3-0-3h5-0-3h5-0-3-0-3h5-0-3h5-0-0-3-2-1-0---|
Eb|--0-----0-----0---0-----0-----0---0-----0-----0-0-3-2-1-0---|
     .     .     .   .     .     .   .     .     . . 

e |---------------|
b |---------------|
g |---------------|
eb|-0-0-0--0-0-0--| (Before chorus)
bb|-0-0-0--0-0-0--|
Eb|-0-0-0--0-0-0--|
    . . .  . . .

chorus (guitar 1) distortion
e |--------------------------------------------------------------------|
b |--------------------------------------------------------------------|
g |--------------------------------------------------------------------|
eb|--------------------------------------------------------------------| 
bb|---12-12-12-12--15-15-15-15--14-14-14-14--8-8-8-8--10-10-10-10------|
Eb|---12-12-12-12--15-15-15-15--14-14-14-14--8-8-8-8--10-10-10-10------|


e |-------------------------------------------------------------------|
b |-------------------------------------------------------------------|
g |-------------------------------------------------------------------|
eb|-------------------------------------------------------------------| 
bb|----0-0000-0-0000-0-0000-0-0000-8-8-8-8--10-10-10-10--12-12-12-12--|
Eb|----0-0000-0-0000-0-0000-0-0000-8-8-8-8--10-10-10-10--12-12-12-12--|
         ....   ....   ....   ....

e |----------------------------------------------------------------------|
b |----------------------------------------------------------------------|
g |----------------------------------------------------------------------|
eb|----------------------------------------------------------------------| 
bb|--15-15-15-15--14-14-14-14-8-8-8-8--10-10-10-10--0-0000-0-0000-0-0000-|
Eb|--15-15-15-15--14-14-14-14-8-8-8-8--10-10-10-10--0-0000-0-0000-0-0000-|
                                                      ....   ....   ....
e |-------------------------------------------------------------------|
b |-------------------------------------------------------------------|
g |-------------------------------------------------------------------|
eb|-------------------------------------------------------------------| 
bb|-0-0000-8-8-8-8--10-10-10-10--12-12----8888--10101010--------------|
Eb|-0-0000-8-8-8-8--10-10-10-10--12-12----8888--10101010--------------|
      ....                                ....   . . . .
e |------------------------------------------------------------|
b |------------------------------------------------------------| 
g |----8~---10~---6~--11~--10~--8~---8~--10~---11~---13~-------|
eb|------------------------------------------------------------| 
bb|------------------------------------------------------------| 
Eb|------------------------------------------------------------|

thing after chrous (guitar 1)
e |------------------------------------------------------------------|
b |------------------------------------------------------------------|
g |------------------------------------------------------------------| 
eb|--0-000-000-000-000-000-000-000-000-000-000-000-000-3----5-----2--| 
bb|--0-000-000-000-000-000-000-000-000-000-000-000-000-1000-3-000-0--|
Eb|--0-000-000-000-000-000-000-000-000-000-000-000-000--000---000----|
     . ... ... ... ... ... ... ... ... ... ... ... ...  ...   ...


solo thing (very fast)

e |----------------------------------------------------------------------|
b |----------------------------------------------------------------------| 
g |----------------------------------------------------------------------|
eb|--------------------------------------(play-6x)----7-----0-----7------| 
bb|-0-8p7p0-7p5p0-8p7p0-7p5p0-3-2-0-7p5p0---------000-5-000-0-000-5-000--| 
Eb|-0-------------------------3-2-0---------------000---000-0-000---000--|
                                                  ...   ...   ...   ... 
continued:  outro

e |-----------------------------------------------------|
b |-----------------------------------------------------|do it however many 
g |-----------------------------------------------------|times you need to.
eb|-5~--------------------------------------------------|
bb|-3~---0--8758-0-8757--87535--0--8758-0-8757--03------|
Eb|------0-------0--------------0-------0---------------|

end with

e |----------------------------------------------|
b |----------------------------------------------|  
g |-0-0-0-0-0--0--0------------------------------| 
eb|-0-0-0-0-0--0--0------------------------------| 
bb|-0-0-0-0-0--0--0------------------------------| 
Eb|-0-0-0-0-0--0--0------------------------------|  as many times as needed
"            
Submit corrections


         Hard to play? Try these video lessons and learn fast 
        
↑ Back to top | Tablatures and chords for acoustic guitar and electric guitar, ukulele, drums are parodies/interpretations of the original songs. You may use it for private study, scholarship, research or language learning purposes only