» » »

Story Of The Year - "Is This My Fate," He Asked Them Bass

Artists:  A B C D E F G H I J K L M N O P Q R S T U V W X Y Z # 

"Is This My Fate," He Asked Them Bass

(ver. 1) Click to play this song!
Story Of The Year
 Rating:
4/5 (4 votes)

  Tabs too difficult? Try these video lessons and learn fast
 
                "Story Of The Year - Is This My Fate? He Asked Them
 
I used this guitar pro tab as a basis and added some missing bassline parts

p = pull-off
* = Let note ring

Tuning: Eb, Ab, Db, Gb


(0:20)
 
Bass starts after the intro with the last bar and goes with both guitars into the main riff
 
Gb--------|--------|--------|--------|
Db--------|--------|--------|--------|
Ab--------|--------|--------|-5-4-3-2|
Eb--------|--------|--------|--------|
 
Gb----------------------------------------------------------|  (x 3)
Db----------------------------------------------------------|
Ab----5-7---5-7---5---5-7---5-7---5---5-7---5-7-----5-4-3-2-|
Eb--0-----0-----0---0-----0-----0---0-----0-----0-0---------| 

Fill-in (0:37)

Gb--------------------------------------------|
Db-----------------------5p4------------------|
Ab---------------------------5------2-3-2-----|
Eb-0--000-000-000-000-00--------000-----------|

Gb--------------------------------------------|
Db------------5p4-------5p4------5p4----------|
Ab----------------5---------5--------5----3-5-|
Eb-000-000-00--------00-------00-------00-----|
 
Gb--------------------------------------------|
Db------------5p4------5p4------5p4-----------|
Ab----------------5--------5---------5-4-3-2--|
Eb-000-000-00-------00-------00---------------|

Verse (0:52)

Gb--------|--------|--------|--------|
Db--------|--------|--------|--------|
Ab--------|--------|--------|-5-4-3-2|
Eb--------|--------|--------|--------|

Gb----------------------------------------------------------|  (x 2)
Db----------------------------------------------------------|
Ab----5-7---5-7---5---5-7---5-7---5---5-7---5-7-----5-4-3-2-|
Eb--0-----0-----0---0-----0-----0---0-----0-----0-0---------| 


Gb---------|
Db---------|
Ab---------|
Eb-000-000-|


Chorus (1:08)


Gb-----------------------------------------------------|
Db-----------------------------------------------------|
Ab--77-777-7--10-10--10-10-10--10--33-333-3--55-555-5--|
Eb-----------------------------------------------------|


Gb------------------------------------------------------|
Db------------------------------------------------------|
Ab-----------------------33-333-3--55-555-5-------------|
Eb-0-0000-0000-0000-000---------------------------------|


Gb-----------------------------------------------------|
Db-----------------------------------------------------|
Ab--77-777-7--10-10--10-10-10--10--33-333-3--55-555-5--|
Eb-----------------------------------------------------|


Gb------------------------------------------------------|
Db------------------------------------------------------|
Ab-----------------------33-333-3--55-555-5-------------|
Eb-0-0000-0000-0000-000---------------------------------|

Gb------------------------------------------------------|
Db------------------------------------------------------|
Ab-3*---------------------------------------------------|
Eb--------0--0--0---------------------------------------|


Verse 2 (1:30)

Gb-----------------------------------------------------------------------|
Db-----------------------------------------------------------------------|
Ab---5-7-------5-7-------5-7-------5-7-------5-7-------5-7-------5-7-----|
Eb-0-----00000-----00000-----00000-----00000-----00000-----00000---------|

Gb----------------|
Db----------------|
Ab-------5-4-3-2--|
Eb-0000-----------|

Gb----------------------------------------------------------|  (x 2)
Db----------------------------------------------------------|
Ab----5-7---5-7---5---5-7---5-7---5---5-7---5-7-----5-4-3-2-|
Eb--0-----0-----0---0-----0-----0---0-----0-----0-0---------| 

Gb---------|
Db---------|
Ab---------|
Eb-000-000-|



Chorus 2 (1:52)

The same as first chorus, only this one ends with 

Gb-------------------|
Db-------------------|
Ab-33333333-55555555-|
Eb-------------------|


Bridge (2:16)

Bass plays along with drums 

Gb-----------------------------------| (x 4)
Db-----------------------------------|
Ab-----------------------------------|
Eb-0-000-000-000-000-000-000-000-----|


(2:34) Guitars join

Gb-----------------------------------| (x 2)
Db-----------------------------------|
Ab-----------------------------------|
Eb-0-000-000-000-000-000-000-000-----|

Gb-----------------------------------|-----------------------------------|
Db-----------------------------------|-----------------------------------|
Ab-----------------------------------|----3-------5----2-----------------|
Eb-0-000-000-000-000-000-000-000-----|-00------00---00-------------------|


(2:46) Here goes the most special part, listen closely to get it

Gb---------------------------------------------------------| (x 3)
Db---------------------------------------------------------|
Ab---------------------------------------------------------|
Eb-0-0000000003-2222-0-0000-0000000003-2222-0-0000---------|


Gb-----------------------------------| 
Db-----------------------------------|
Ab--7-777-------7-777-5*-------------|
Eb--------0-000----------------------|


Let it ring until the outro riff on 3:18

Gb-----------------------------------------------------------------------| 
Db-----------------------------------------------------------------------|
Ab---12-10-9-10----10-9-7-9----9-7----7--------12-10-9-10---10-9-7-9-----|
Eb-0------------0-----------------10-------0--------------0----------7-10|

(x 4)


Ends on 3:43 

Gb---------| 
Db---------|
Ab---------|
Eb--0------|
"            
Submit corrections


         Hard to play? Try these video lessons and learn fast 
        
↑ Back to top | Tablatures and chords for acoustic guitar and electric guitar, ukulele, drums are parodies/interpretations of the original songs. You may use it for private study, scholarship, research or language learning purposes only