Home » S » Stormtroopers Of Death »

Stormtroopers Of Death - Speak English Or Die Tabs

Artists:  A B C D E F G H I J K L M N O P Q R S T U V W X Y Z # 

Speak English Or Die Tabs

(ver. 2) Click to play this song!
Stormtroopers Of Death
S.O.D.    Stormtroopers Of Death    S.O.D.
                    -
           Speak English Or Die!  

Kick Ass Song by S.O.D

I tabbed this by ear. It's not so hard song but it was a bit hard to tab because 
of the quality of the song. Listen to the song to get the timings right.

Tuning: EADGBe (Standard)


Bass intro 4x times

The guitar kicks in:

G|---------------------|
D|.------4---5--------.|
A|.--2---2---3---5s3--.|
E|---0-----------3s1---|
     PM-------------------------------------
G|----------------------------------------------|
D|.--------------------------------------------.| Repeat this 4 times
A|.--------------------------------------------.| 
E|---3333333333666666666699999999994444444444---|

G|---------------------------|
D|---6-----(let ring)--------|  "Speak English Or Die!"
A|---6-----------------------|
E|---4-----------------------|


G|------------------------------|
D|---2---2---2---2--------------| 
A|---2---2---2---2--(let ring)--|
E|---0---0---0---0--------------|

G|---------------------|
D|.------4---5--------.|
A|.--2---2---3---5s3--.|
E|---0-----------3s1---|
     PM--------------------------------------
G|----------------------------------------------|
D|.--------------------------------------------.| Repeat this 4 times
A|.--------------------------------------------.| 
E|---3333333333666666666699999999994444444444---|
  

G|---------------------------|
D|---6-----(let ring)--------|  "Speak English Or Die!"
A|---6-----------------------|
E|---4-----------------------|

      PMPM   PMPM  PMPM
G|---------------------------|
D|.--------4-----5----------.| 8 times
A|.--2-----2-----3-----5-3--.|
E|---0-0-0---0-0---0-0-3-1---|

G|-----------------------------------------------------|
D|-----------------------------------------------------|
A|---6-----6-----6-----6-----5-----5-----5-----5-------|
E|---4-4-4-4-4-4-4-4-4-4-4-4-3-3-3-3-3-3-3-3-3-3-3-3---|

      PMPM   PMPM  PMPM
G|---------4-----5-----------|
D|.--------2-----3----------.| 2 times
A|.--2-----------------5-3--.|
E|---0-0-0---0-0---0-0-3-1---|

G|-----------------------------------------------------|
D|-----------------------------------------------------|
A|---6-----6-----6-----6-----5-----5-----5-----5-------|
E|---4-4-4-4-4-4-4-4-4-4-4-4-3-3-3-3-3-3-3-3-3-3-3-3---|

      PMPM   PMPM  PMPM
G|---------------------------|
D|.--------4-----5----------.| 6 times
A|.--2-----2-----3-----5-3--.|
E|---0-0-0---0-0---0-0-3-1---|

G|-----------------------------------------------------|
D|-----------------------------------------------------|
A|---6-----6-----6-----6-----5-----5-----5-----5-------|
E|---4-4-4-4-4-4-4-4-4-4-4-4-3-3-3-3-3-3-3-3-3-3-3-3---|

      PMPM   PMPM  PMPM
G|---------------------------|
D|.--------4-----5----------.| 2 times
A|.--2-----2-----3-----5-3--.|
E|---0-0-0---0-0---0-0-3-1---|

G|---------------------------------------------------------------------|
D|---------------------------------------------------2-----------------|
A|---6-----6-----6-----6-----5-----5-----5-----5-----2---(let ring)----|
E|---4-4-4-4-4-4-4-4-4-4-4-4-3-3-3-3-3-3-3-3-3-3-3-3-0-----------------|

     PM--------------------------------------

G|----------------------------------------------|
D|.--------------------------------------------.| Repeat this 4 times
A|.--------------------------------------------.| 
E|---3333333333666666666699999999994444444444---|

G|---------------------------|
D|---6-----(let ring)--------|  "Speak English Or..."
A|---6-----------------------|
E|---4-----------------------|

      PMPM   PMPM  PMPM
G|---------------------------|
D|.--------4-----5----------.| Play this 3 times
A|.--2-----2-----3-----5-3--.| "...DIEEEEEEE!!!!"
E|---0-0-0---0-0---0-0-3-1---|

      PMPM  PMPM   PMPM
G|--------------------------------------|
D|---------4-----5---------2------------|
A|---2-----2-----3-----5-3-2------------|
E|---0-0-0---0-0---0-0-3-1-0------------|


        SPEAK ENGLISH OR DIE!
            
Submit corrections

↑ Back to top | Tablatures and chords for acoustic guitar and electric guitar, ukulele, drums are parodies/interpretations of the original songs. You may use it for private study, scholarship, research or language learning purposes only