Home » S » Stone Free »

Stone Free - Listen Tabs

Artists:  A B C D E F G H I J K L M N O P Q R S T U V W X Y Z # 

Listen Tabs

(ver. 2) Click to play this song!
Stone Free
(Intro)
Standard Tunning 
Verse/Intro
e-------------------------3----|
b-------3--------4--------3----|
g-----0---0-----0------0-------|
d---2------4--3----------------|
a--------------------3---------|
e------------------------------|

 Chorus 
e--3---5---3------|
b--3---5---3------|
g--0---0---0------|
d--2---4---0------|
a--3---5---2------|
e----------3------|
            
Submit corrections

↑ Back to top | Tablatures and chords for acoustic guitar and electric guitar, ukulele, drums are parodies/interpretations of the original songs. You may use it for private study, scholarship, research or language learning purposes only