Home » S » Stone Free »

Stone Free - Listen Chords

Artists:  A B C D E F G H I J K L M N O P Q R S T U V W X Y Z # 

Listen Chords

(ver. 1) Click to play this song!
Stone Free


Intro/Verse:					 
e|--------------------------------3-------------|
B|-------3--------3-------3------3----3---------|
G|-----0--------0-------0-----0-----0---0-------|
D|--2-------2s4------4--------------------------|
A|----------------------------------------------|
E|----------------------------------------------|

Strum when last part of verse before going to chorus
E|-------3-----------|
B|-------3-----------|
G|-------0-----------|
D|-------------------|
A|-------------------|
E|-------------------|

Verse1:
Close the door
I feel a breeze hold me please
I hate to be alone
It's a cold night, turn off the light
Come take my hand and...

Chorus:
C9    D		   Bm		  C9
Listen to these things I have to say
		C9
please understand
	   D  Bm	  C9
she left me, all alone again

Verse2:
Clear the room
Of every memory
I don't want that song back on
It's an endless maze
Take away this haze
Please mend my heart and...

Chorus:
to these things I have to say
please understand
she left me, all alone again

Adlib

Then
D-C9 3x

Chorus:
to these things I have to say
please understand
she left me, all alone again

Verse3:
Turn away
Don't want you to see me cry
I just want things the way they were
It's so hard to say goodbye
Wipe my tears and...

Chorus:
to these things I have to say
please understand
she left me, all alone again

(DO CHORDS OF CHORUS)

This I ask of you
Please stay with me
Until she comes back
C9
Until she comes
D
Until she comes
Bm
Until she comes
C9
Please stay with me
C9
Until she comes
D
Until she comes
Bm
Until she comes 
C9
back

OUTRO
D-C9 4X
            
Submit corrections

↑ Back to top | Tablatures and chords for acoustic guitar and electric guitar, ukulele, drums are parodies/interpretations of the original songs. You may use it for private study, scholarship, research or language learning purposes only