Home » S » Stevie Wonder »

Stevie Wonder - Too High Bass

Artists:  A B C D E F G H I J K L M N O P Q R S T U V W X Y Z # 

Too High Bass

(ver. 1) Click to play this song!
Stevie Wonder
-------------------------------------------------------------------------------
			     "Too High" - Stevie Wonder
-------------------------------------------------------------------------------


Tuning: Standard

Stevie Wonder has had a million wonderful bass lines, because he is a musical genius and 
played with so many bass players. I can't believe that there are so few tabs up, so I'm 
to try and tab a few.\


Key:

X = Mute

Main Riff:

G|-------------------------------------------------------------------------|
D|------------55----78-----------------------------------------------------|
A|-------77----------------------------------------------------------------|
E|--5----------------------------------------------------------------------|


"Do,do,do,do,do,do...":

G|-------------------------------------------------------------------------|
D|-------------------------------------------------------------------------|
A|-------------------------------------------------------------------------|
E|-0--X--5----0--X--3----0-0----0-0----0-0---------------------------------|

"I'm Too High...":

G|-------------------------------------------------------------------------|
D|-------------------------------------------------------------------------|
A|-------------------------------------------------------------------------|
E|--5-0-----3-0------------------------------------------------------------|


"She's a...":
                                     Then you bring it down a step:
G|-------------------------------------------------------------------------|
D|-------------55----7--------------------------33---5---------------------|
A|-----77--------------------------------55--------------------------------|
E|--5--------------------------------3-------------------------------------|


After that you should get the general notion for the riff.
            
Submit corrections

↑ Back to top | Tablatures and chords for acoustic guitar and electric guitar, ukulele, drums are parodies/interpretations of the original songs. You may use it for private study, scholarship, research or language learning purposes only