Home » S » Stevie Wonder »

Stevie Wonder - Looking For Another Pure Love Tabs

Artists:  A B C D E F G H I J K L M N O P Q R S T U V W X Y Z # 

Looking For Another Pure Love Tabs

(ver. 1) Click to play this song!
Stevie Wonder
  F
e|--15b17~-17r15p13h15-13-15b17-15b17~-|-15b17-15b17-15b17-15b17-15b17br15-15-13-15p13--13--|
B|13-----------------------------------|----------------------------------------------13--13|
G|-------------------------------------|----------------------------------------------------|
D|-------------------------------------|----------------------------------------------------|
A|-------------------------------------|----------------------------------------------------|
E|-------------------------------------|----------------------------------------------------|

  A#7                                         A#m7
e|-------18b19-18b20-18b20-18b20-18b20-18b20-|--------15-16-18-18b20-18b20-|
B|18-18~-------------------------------------|18~--18----------------------|
G|-------------------------------------------|-----------------------------|
D|-------------------------------------------|-----------------------------|
A|-------------------------------------------|-----------------------------|
E|-------------------------------------------|-----------------------------|

  G#maj7                                    G#m7
e|15~-15TR-14TR-13TR-12TR-11TR-10TR-9TR-8TR-|7TR-6TR-5TR-4TR-3TR-2TR-1TR/13----------------|
B|------------------------------------------|--------------------------------14-19-18b21r18|
G|------------------------------------------|----------------------------------------------|
D|------------------------------------------|----------------------------------------------|
A|------------------------------------------|----------------------------------------------|
E|------------------------------------------|----------------------------------------------|

  F#maj7
e|------------------------------|
B|18~---16h18p16-14h16p14-------|
G|------------------------15~---|
D|------------------------------|
A|------------------------------|
E|------------------------------|
            
Submit corrections

↑ Back to top | Tablatures and chords for acoustic guitar and electric guitar, ukulele, drums are parodies/interpretations of the original songs. You may use it for private study, scholarship, research or language learning purposes only