Home » S » Stevie Wonder »

Stevie Wonder - Do I Do Bass

Artists:  A B C D E F G H I J K L M N O P Q R S T U V W X Y Z # 

Do I Do Bass

(ver. 1) Click to play this song!
Stevie Wonder
[Intro]
 
Gb|---------------------------------------------------------------------------------------------|
Db|--------------------------------------5-4-3--x-3------3--3--3-4-5--x-5-----------------------|
Ab|3--x-3------3--3------3--x-3-----3--3-------------5-3------------------5-------------3-------|
Eb|-------5-3-------3h5---------5-3-----------------------------------------5-3--3--3h5---------|
 
Gb|---------------------------------------------------------------------------------------------|
Db|-----------------------------------------3--x-3-----3--3--3-4-5------------------------------|
Ab|x-3------3--3------3--x-3------3--3--3h5--------5-3--------------0-5-------------3-5-3-----3-|
Eb|----5-3-------3h5---------5-3----------------------------------------0-5-3-3-3h5-------5-3---|
 
 
[Verse 1]
 
Gb|---------------------------------------------------------------------------------------------|
Db|---------------------------------------3--x-3-----3--3--3-4-5--------------------------------|
Ab|x-3-----3--3------3--0-3-----3--3--3h5--------5-3--------------0-5-------------3-5-3-----3---|
Eb|----5-3-------3h5--------5-3---------------------------------------0-5-3-3-3h5-------5-3-----|
 
Gb|---------------------------------------------------------------------------------------------|
Db|----------------------------------5-4-3--x-3-----3--3--3-4-5---------------------------------|
Ab|x-3------3--3-----3--x-3-----3--3------------5-3--------------x-5-------------5--------------|
Eb|-----5-3------3h5--------5-3--------------------------------------0-5-3-3-5-5----------------|
 
 
[Chorus]
 
Gb|7/9--7-5---7-5-----5---------------------7/9--7-5---7-5-----5--------------------------------|
Db|---------7-----7-5---7-5--------------------------7-----7-5---7-5----------------------------|
Ab|-------------------------5-6-7\-------5---------------------------5-6-7\-------5-------------|
Eb|--------------------------------0-5-5------------------------------------0-5-5---------------|
 
Gb|7/9--7-5---7-5-----5-------------------------------------------------------------------------|
Db|---------7-----7-5---7-5-----5---------------------------------------------------------------|
Ab|-------------------------5h7---------3h5-3-----3---------------------------------------------|
Eb|-------------------------------3-3h5-------5-3-----------------------------------------------|
 
 
[Interude]
 
Gb|---------------------------------------------------------------------------------------------|
Db|------------------------------------5-4-3--x-3------3--3--3-4-5-------------------5----------|
Ab|x--3------3--3-----3--x-3-----3--3--------------5-3-------------0-3-4-5---------5---5---3----|
Eb|-----5-3-------3h5--------5-3-------------------------------------------0-5-3-3-------3------|
 
 
[Verse 2]
 
Gb|---------------------------------------------------------------------------------------------|
Db|------------------------------------5-4-3--x-3-----3--3--3-4-5---------------5---------------|
Ab|x-3-------3--3------3--x-3-----3--3------------5-3-------------0-5---------5---5-------3-----|
Eb|-----5-3--------3h5--------5-3-------------------------------------0-5-3-3-------0-3-3-------|
 
Gb|---------------------------------------------------------------------------------------------|
Db|------------------------------------5-4-3--x-3-----3--3--3-4-5-------------------------------|
Ab|x-3-------3--3------3--x-3-----3--3------------5-3-------------0-5-----------5---------------|
Eb|-----5-3--------3h5--------5-3-------------------------------------0-3-3-5-5-----------------|
 
 
[Chorus]
 
Gb|7/9--7-5---7-5-----5---------------------7/9--7-5---7-5-----5--------------------------------|
Db|---------7-----7-5---7-5--------------------------7-----7-5---7-5----------------------------|
Ab|-------------------------5-6-7\-------5---------------------------5-6-7\-------5-------------|
Eb|--------------------------------0-5-5------------------------------------0-5-5---------------|
 
Gb|7/9--7-5---7-5-----5-----------12h13p12h13p12\-----------------------------------------------|
Db|---------7-----7-5---7-5----5/---------------------------------------------------------------|
Ab|-------------------------5h7-----------------------3-----------------------------------------|
Eb|-----------------------------------------------3-3-------------------------------------------|
 
 
[Interude]
 
Gb|---------------------------------------------------------------------------------------------|
Db|----------------------------------4-4-3--x-3-----3-3-3-4-5-----------------------------------|
Ab|x-3---3------3--3------3--x-3----------------5-3------------0-5---------4-4-3----------------|
Eb|---------5-3-------3h5--------5-3-------------------------------0-5-0-3----------------------|
 
Gb|---------------------------------------------------------------------------------------------|
Db|------------------------------4-4-3--x-3-----3-3-3-4-5---------------------------------------|
Ab|x-3------3--3------3--x-3----------------5-3------------0-5---------4-4-3--------------------|
Eb|-----5-3-------3h5--------5-3-------------------------------0-5-0-3--------------------------|
 
Gb|---------------------------------------------------------------------------------------------|
Db|-----------------------------4-4-3--x-3------3-3-3-4-5--5-------------5----------------------|
Ab|----------3-3-----3--x-3----------------5-3---------------5---------5---5--------------------|
Eb|--0-0-3-3-----3h5--------5-3--------------------------------0-5-3-3-------3------------------|
 
 
[Bridge]
 
Gb|---------------7-6-----9-7-------------------------------------------------------------------|
Db|-----7---7/9-7-----9-7-----7/9---------9---9/11-9-----9--------------11----11/13--11---------|
Ab|---7---7-----------------------7-5---9---9--------7-9---9-7-------11----11-------------------|
Eb|5----------------------------------7------------------------7-8-9----------------------------|
 
Gb|13-11-10-------------------------------------------------------------------------------------|
Db|---------13-11-----------------------3-4-5-5-5\-----------3-4-5-5-5-5------------------------|
Ab|---------------0-11-10-9----------------------------------------------3----------------------|
Eb|-------------------------0-4-0-3-3-3------------1-2-3-3-3------------------------------------|
 
 
[Break]
 
Gb|5---5----------------------------------------------------------------------------------------|
Db|---------------------------------5-4-3--x-3-----3-3-3-4-5------7-6-5-5-------------5---------|
Ab|--3-------3-3-----3----3-----3-3------------5-3-----------0-5/---------5---------5---3-------|
Eb|------5-3-----3-5----5---5-3---------------------------------------------0-5-3-3-------------|
 
 
[Verse 3]
 
Gb|---------------------------------------------------------------------------------------------|
Db|------------------------------------5-4-3--x-3--3-----3-3-3-4-5------------------------------|
Ab|x-3------3--3------3--x-3-----3--3----------------5-3------------0-5-------------3-5-3-----3-|
Eb|-----5-3-------3h5--------5-3----------------------------------------0-5-4-3-3h5-------5-3---|
 
Gb|---------------------------------------------------------------------------------------------|
Db|------------------------------------5-4-3--x-3-----3--3--3-4-5-------------------------------|
Ab|x-3-------3--3------3--x-3-----3--3------------5-3-------------x-5-----------5---------------|
Eb|-----5-3--------3h5--------5-3-------------------------------------0-3-3-5-5-----------------|
 
 
[Chorus]
 
Gb|7/9--7-5---7-5-----5---------------------7/9--7-5---7-5-----5--------------------------------|
Db|---------7-----7-5---7----------------------------7-----7-5---7------------------------------|
Ab|-----------------------0-5-6-7\-------5-------------------------0-5-6-7\-------5-------------|
Eb|--------------------------------0-5-5------------------------------------0-5-5---------------|
 
Gb|7/9-7-5---7-5-------5------------------------------------------------------------------------|
Db|--------7-----7-5h7---0-----5\-------5-------------------------------------------------------|
Ab|------------------------5h7------3/5-------3-------------------------------------------------|
Eb|-------------------------------3-------0-3---------------------------------------------------|
 
 
[Interlude]
 
Gb|---------------------------------------------------------------------------------------------|
Db|-------------------------------4-4-3--x-3-----3-3-3-4-5--------------------------------------|
Ab|x-3------3-3------3--x-3-----------------5-3------------0-5---------4-4-3--------------------|
Eb|-----5-3------3h5---------5-3-------------------------------0-5-0-3--------------------------|
 
Gb|5--------------------------------------------------------------------------------------------|
Db|---------------------------4-4-3--x-3-----3-3-3-4-5-5----------------------------------------|
Ab|--3-----3-3-----3--x-3----------------5-3-------------0-5---------4-4-3--3-3-----3-3-----3---|
Eb|----5-3-----3h5--------5-3--------------------------------0-5-0-3------------5-3-----3h5-----|
 
Gb|---------------------------------------------------------------------------------------------|
Db|--------4-4-3--x-3-----3-3-3-4-5--------------5-6--------------------------------------------|
Ab|x-3----------------5-3------------x---------5------------------------------------------------|
Eb|----5-3-----------------------------0-5-3-3--------------------------------------------------|
 
 
[Bridge]
 
Gb|----------9-7-9/11----------------------11-9-8----8------------------------------------------|
Db|7---7/9-7----------0-0-------9---9/11-9--------11---9--------------11----11/13-11------------|
Ab|--7------------------------9---9----------------------9-7-------11----11---------------------|
Eb|-----------------------5-7--------------------------------7-8-9------------------------------|
 
Gb|13-11----------------------------------------------------------------------------------------|
Db|------13-11---------------3-4----------------------7-----------------------------------------|
Ab|------------11-9\----------------------------------------------------------------------------|
Eb|------------------3-3-3-3-----0-3-3-3-3-3-3-3-3-3--------------------------------------------|
 
 
[Break]
 
Gb|5---5-------5---5-------5---5-------5---5-------5---5----------------------------------------|
Db|--7---7-5h7---7---7-5h7---7---7-5h7---7---7-5h7---7---7-5-4-3--x-3-----3-3-3-4-5-------------|
Ab|-------------------------------------------------------------------5-3-----------------------|
Eb|---------------------------------------------------------------------------------------------|
 
Gb|---------------------------------------------------------------------------------------------|
Db|------3-4-5-5--------------------------------------------------------------------------------|
Ab|0-3h5---------5---------5-3------------------------------------------------------------------|
Eb|----------------0-5-3-3----------------------------------------------------------------------|
 
 
[Verse 4]
 
Gb|5--------------------------------------------------------------------------------------------|
Db|-------------------------------5-4-3--x-3-----3-3-3-4-5--x-3-4-5-------------5---------------|
Ab|--3-----3-3-----3--x-3-----3-3------------5-3--------------------5---------5---x-5-4-3-------|
Eb|----5-3-----3-5--------3-5-----------------------------------------0-5-3-3-------------------|
 
Gb|---------------------------------------------------------------------------------------------|
Db|-----------------------------5-4-3--x-3-----3-3-3-4-5----------------5-----------------------|
Ab|3-----3-3-----3--x-3-----3-3------------5-3------------0-5---------5---5----5----------------|
Eb|--5-3-----3-5--------3-5-----------------------------------0-5-4-3-------0-------------------|
 
 
[Chorus]
 
Gb|7/9-7-5---7-5-----5---------------------7/9-7-5---7-5-----5----------------------------------|
Db|--------7-----7-5---7---------------------------7-----7-5---7--------------------------------|
Ab|----------------------0-5-6-7\-------5------------------------0-5-6-7\-------5---------------|
Eb|-------------------------------0-5-5-----------------------------------0-5-5-----------------|
 
Gb|7/9-7-5---7-5-----5----------12/13\12/13\12/13\12/13\12/13\12--------------------------------|
Db|--------7-----7-5---7------------------------------------------------------------------------|
Ab|----------------------5h7-5/-----------------------------------------------------------------|
Eb|---------------------------------------------------------------3-----------------------------|
 
 
[Outro]
 
Gb|---------------------------------------------------------------------------------------------|
Db|-----------------------------4-4-3--x-3-----3-3-3-4-5----------------------------------------|
Ab|----3-------------3--x-3----------------5-3------------0-5-----------------------------------|
Eb|0-3---3-0-5-3-5-3--------5-3-------------------------------0-5-3-3-3-3-3-5-3-----------------|
 
Gb|---------------------------------------------------------------------------------------------|
Db|-------------------------------4-4-3--x-3-----3-3-3-4-5-------------------------------17\----|
Ab|----5-4-3-3-----3-5-3--x-3----------------5-3------------0-5---------4-4-3--x-3-----3/---3---|
Eb|0-3---------3h5------------3-5-------------------------------0-5-4-3------------5-3----------|
 
Gb|---------------------------------------------------------------------------------------------|
Db|--------4-4-3--x-3-----3-3-3-4-5--------7-6-5-5----------------------------------------------|
Ab|3-3----------------5-3------------0-5--------------------4-3--x-3-----3-3-----3--------------|
Eb|----5-3-------------------------------0----------0-5-0-3----------5-3-----3h5----------------|
 
Gb|------------------------------------10-11-12-10-11-12-10-11-12-10-11-12-12\------------------|
Db|--------4-4-3--x-3-----3-3-3-4-5-10-----------------------------------------3----------------|
Ab|x-3----------------5-3-----------------------------------------------------------------------|
Eb|----5-3--------------------------------------------------------------------------------------|
 
Gb|---------------------------------------------------------------------------------------------|
Db|---------------------------4-4-3--x-3-----3-3-3-4-5----------3-3-4-5-------------------------|
Ab|x-3-----3-3-----3--x-3----------------5-3------------0-3-4-5---------5p4--4-4-3--------------|
Eb|----5-3-----3h5--------5-3-------------------------------------------------------------------|
 
Gb|---------------------------------------------------------------------------------------------|
Db|---------------------------4-4-3--x-3-----3-3-3-4-5--x-5-5-5---------------------------------|
Ab|x-3-----3-3-----3--x-3----------------5-3--------------------4-4-3-3\------------------------|
Eb|----5-3-----3h5--------3-5-------------------------------------------------------------------|
            
Submit corrections

↑ Back to top | Tablatures and chords for acoustic guitar and electric guitar, ukulele, drums are parodies/interpretations of the original songs. You may use it for private study, scholarship, research or language learning purposes only