Home » S » Steve Miller Band »

Steve Miller Band - Winter Time Tabs

Artists:  A B C D E F G H I J K L M N O P Q R S T U V W X Y Z # 

Winter Time Tabs

(ver. 2) Click to play this song!
Steve Miller Band
 Intro
  Q=106
  N.C.
 4/4
  Gtr I (Ac. Gtr. w/ capo 1st fret / w/ chorus)
  Wx4
|--------|
|--------|
|--------|
|--------|
|--------|
|--------|


  Bbm               Bbm/Ab            Bbm/Gb
  E E E E E E E E   E E E E E E E E   E E E E E E E E   E E E E  E  E  E  E
|---------1-------|---------1-------|---------1-------|----------1----------|
|-------2---2---2-|-------2---2---2-|-------2---2---2-|-------2-----2-----2-|
|-----3-------3---|-----3-------3---|-----3-------3---|-----3----------3----|
|---3-------------|---3-------------|---3-------------|---3-----------------|
|-1---------------|-----------------|-----------------|---------------------|
|-----------------|-4---------------|-2---------------|-2-------------------|
|
| Gtr III (Harmonica arr. for Gtr w/ capo 1st fret)
| W                 W                 W                 H        E  E  E  E
|-----------------|-----------------|-----------------|---------------------|
|-----------------|-----------------|-----------------|---------------------|
|-----------------|-----------------|-----------------|---------------------|
|-----------------|-----------------|-----------------|---------11-13-11-10-|
|-----------------|-----------------|-----------------|---------------------|
|-----------------|-----------------|-----------------|---------------------|


  Bbm                         Bbm/Ab
   E E E E   E  E    E    E    E  E  E E   E  E    E    E
|------------1--------------|--------------1--------------|
|--------2------2---------2-|----------2------2---------2-|
|------3-------------3------|--------3-------------3------|
|----3----------------------|-----3-----------------------|
|--1------------------------|-----------------------------|
|---------------------------|--4--------------------------|
|
|            |----3-----|                  |----3-----|
|  H        +Q     Q    Q      E  E  Q    +Q     Q    Q
|---------------------------|-----------------------------|
|---------------------------|-----------------------------|
|----------------------10---|-13--------------------------|
|-11-------(11)---13--------|----13-13---(13)---11---10---|
|---------------------------|-----------------------------|
|---------------------------|-----------------------------|


   E E E E  E E E E     E  E E E E  E  E  E
|-----------1-------|------------1-----------|
|--------2----2---2-|----------2----2-----2--|
|------3--------3---|--------3---------3-----|
|----3--------------|------3-----------------|
|-------------------|------------------------|
|--4----------------|---4--------------------|
|
|  H        H          +H        E  E  E  E
|-------------------|------------------------|
|-------------------|------------------------|
|-------------------|--------------------10--|
|-13-------11-------|-(11)---------11-13-----|
|-------------------|------------------------|
|-------------------|------------------------|


  Bbm                       Bbm/Ab
    E  E E E  E    E  E E    E  E E E  E   E  E E
|-------------1-----------|------------1----------|
|----------2-------2----2-|---------2------2----2-|
|--------3------------3---|-------3-----------3---|
|------3------------------|-----3-----------------|
|---1---------------------|-----------------------|
|-------------------------|--4--------------------|
|
|                                          ~~
|  +H         E  a E  E E   +H        +E   E  Q
|-------------------------|-----------------------|
|-------------------------|-----------------------|
|-(10)-------10-10p8----8-|-(8)-------(8)---------|
|--------------------11---|---------------11-10---|
|-------------------------|-----------------------|
|-------------------------|-----------------------|


  Bbm/Gb
   E  E   E  E E E E E     E  E E E  E  E  E  E
|--------------1-------|-------------1-----------|
|------------2---2---2-|----------2-----2-----2--|
|---------3--------3---|--------3----------3-----|
|-----3----------------|------3------------------|
|----------------------|-------------------------|
|--2-------------------|---2---------------------|
|
|  E  E  +H.              +Q    Q    E  E  E  E
|----------------------|-------------------------|
|----------------------|-------------------------|
|----------------------|-------------------------|
|-13-11-(11)-----------|-(11)-------11-13-11-10--|
|----------------------|-------------------------|
|----------------------|-------------------------|


  Bbm                         Bbm/Ab
   E E E E   E  E    E    E    E  E  E E   E  E    E    E
|------------1--------------|--------------1--------------|
|--------2------2---------2-|----------2------2---------2-|
|------3-------------3------|--------3-------------3------|
|----3----------------------|-----3-----------------------|
|--1------------------------|-----------------------------|
|---------------------------|--4--------------------------|
|
|            |----3-----|                  |----3-----|
|  H        +Q     Q    Q      E  E  Q    +Q     Q    Q
|---------------------------|-----------------------------|
|---------------------------|-----------------------------|
|----------------------10---|-13--------------------------|
|-11-------(11)---13--------|----13-13---(13)---11---10---|
|---------------------------|-----------------------------|
|---------------------------|-----------------------------|


  Bbm/Gb
   E E E E  E E E E     E  E E E E E E E
|-----------1-------|------------1--------||
|--------2----2---2-|----------2---2---2--||
|------3--------3---|--------3-------3----||
|----3--------------|------3--------------||
|-------------------|---------------------||
|--2----------------|---2-----------------||
|
|  H        H          +H        H
|-------------------|---------------------||
|-------------------|---------------------||
|-------------------|---------------------||
|-13-------11-------|-(11)----------------||
|-------------------|---------------------||
|-------------------|---------------------||


   Chorus
    $
    Bbm               Bbm/Ab                              Bbm/Gb
    E E E E E E E E   E E E E E E E E   E E E E E E E E   E E E E E E E E
||----------1-------|---------1-------|---------1-------|---------1--------|
||o-------2---2---2-|-------2---2---2-|-------2---2---2-|-------2---2---2--|
||------3-------3---|-----3-------3---|-----3-------3---|-----3-------3----|
||----3-------------|---3-------------|---3-------------|---3--------------|
||o-1---------------|-----------------|-----------------|------------------|
||------------------|-4---------------|-4---------------|-2----------------|


  Bbm               Bbm/Ab            Bbm/Gb
  E E E E E E E E   E E E E E E E E   E E E E E E E E   E E E E E E E E
|---------1-------|---------1-------|---------1-------|---------1-------|
|-------2---2---2-|-------2---2---2-|-------2---2---2-|-------2---2---2-|
|-----3-------3---|-----3-------3---|-----3-------3---|-----3-------3---|
|---3-------------|---3-------------|---3-------------|---3-------------|
|-1---------------|-----------------|-----------------|-----------------|
|-----------------|-4---------------|-2---------------|-2---------------|


                                                        1.
                             To Coda
  Bbm               Bbm/Ab             Bbm/Gb
  E E E E E E E E   E E E E E E E E    E E E E E E E E   E E E E E E E E
|---------1-------|---------1--------|---------1-------|---------1--------|
|-------2---2---2-|-------2---2---2--|-------2---2---2-|-------2---2---2--|
|-----3-------3---|-----3-------3----|-----3-------3---|-----3-------3----|
|---3-------------|---3--------------|---3-------------|---3--------------|
|-1---------------|------------------|-----------------|------------------|
|-----------------|-4----------------|-2---------------|-2----------------|


  Bbm               Bbm/Ab            Bbm/Gb
  E E E E E E E E   E E E E E E E E   E E E E E E E E   E E E E E E E E
|---------1-------|---------1-------|---------1-------|---------1--------||
|-------2---2---2-|-------2---2---2-|-------2---2---2-|-------2---2---2-o||
|-----3-------3---|-----3-------3---|-----3-------3---|-----3-------3----||
|---3-------------|---3-------------|---3-------------|---3--------------||
|-1---------------|-----------------|-----------------|-----------------o||
|-----------------|-4---------------|-2---------------|-2----------------||


  2.
  Bbm/Gb                              Bbm               Bbm/Ab
  E E E E E E E E   E E E E E E E E   E E E E E E E E   E E E E E E E E
|---------1-------|---------1-------|---------1-------|---------1-------|
|-------2---2---2-|-------2---2---2-|-------2---2---2-|-------2---2---2-|
|-----3-------3---|-----3-------3---|-----3-------3---|-----3-------3---|
|---3-------------|---3-------------|---3-------------|---3-------------|
|-----------------|-----------------|-1---------------|-----------------|
|-2---------------|-2---------------|-----------------|-4---------------|


  Bbm/Ab
                              Gtr II (El. Gtr. w/ capo 1st fret)
  E E E E E E E E   E E E E E  E  S  S  E
|---------1-------|-----------------------||
|-------2---2---2-|-------2---------------||
|-----3-------3---|-----3--------15-15----||
|---3-------------|---3-------15-------15-||
|-----------------|-----------------------||
|-2---------------|-2---------------------||
|
| Gtr IV (El. Gtr. w/ capo 1st fret)
| W                 H       E  E  S  S  E
|-----------------|-----------------------||
|-----------------|--------------14-14----||
|-----------------|-----------15-------15-||
|-----------------|-----------------------||
|-----------------|-----------------------||
|-----------------|-----------------------||


 Guitar Solo
  N.C.
              ~~~~
   E  E  Q   +H        +Q.    E  S  S  E  E  E
|-------------------|--------------------------|
|-------------------|--------------------------|
|-15----15--(15)----|-(15)------15-15----15----|
|----15-------------|--------15-------15----15-|
|-------------------|--------------------------|
|-------------------|--------------------------|
|
|             ~~~~
|  E  E  Q   +H        +Q.    E  S  S  E  E  E
|-------------------|--------------------------|
|-14----14--(14)----|-(14)------14-14----14----|
|----15-------------|--------15-------15----15-|
|-------------------|--------------------------|
|-------------------|--------------------------|
|-------------------|--------------------------|


              ~~~~
   E  E  Q   +H        +Q.    E  S  S  E  E  E
|-------------------|--------------------------|
|----14-------------|--------------------------|
|-15----15--(15)----|-(15)------15-15----15----|
|-------------------|--------15-------15----15-|
|-------------------|--------------------------|
|-------------------|--------------------------|
|
|             ~~~~
|  E  E  Q   +H        +Q.    E  S  S  E  E  E
|----14-------------|--------------------------|
|-14----14--(14)----|-(14)------14-14----14----|
|-------------------|--------15-------15----15-|
|-------------------|--------------------------|
|-------------------|--------------------------|
|-------------------|--------------------------|


                 ~~~~
   S  S  E  Q   +H        +Q.    E  S  S  E  S  S  E
|----------------------|------------------------------|
|-------14-------------|--------------------------14--|
|-15-15----15--(15)----|-(15)------15-15----15-15-----|
|----------------------|--------15-------15-----------|
|----------------------|------------------------------|
|----------------------|------------------------------|
|
|                ~~~~
|  S  S  E  Q   +H        +Q.    E  S  S  E  S  S  E
|-------14-------------|--------------------------14--|
|-14-14----14--(14)----|-(14)------14-14----14-14-----|
|----------------------|--------15-------15-----------|
|----------------------|------------------------------|
|----------------------|------------------------------|
|----------------------|------------------------------|


                                                             G
   Q        a   +E   E  Q   E  a  a  E    Q   E  E  Q   E  E
|--------------------------------------|---------------------|
|-16b18===(16)r(16)p14-16--14h16p14-13-|-14--13-11-10--11-13-|
|--------------------------------------|---------------------|
|--------------------------------------|---------------------|
|--------------------------------------|---------------------|
|--------------------------------------|---------------------|
|
|  Q        a   +E   E  Q   E  a  a  E    Q   E  E  Q   E  E
|-16b18===(16)r(16)p14-16--14h16p14-13-|-14--13-11-10--11-13-|
|--------------------------------------|---------------------|
|--------------------------------------|---------------------|
|--------------------------------------|---------------------|
|--------------------------------------|---------------------|
|--------------------------------------|---------------------|
|
|                                                            G
|  W                                      W
|--------------------------------------|---------------------|
|--------------------------------------|---------------------|
|--------------------------------------|---------------------|
|--------------------------------------|---------------------|
|--------------------------------------|---------------------|
|--------------------------------------|---------------------|


  Bbm                   Bbm/Gb
 tr II
   H..              E   H..             E
|---------------------|----------------------|
|-11---------------11-|-9---------------9S===|
|---------------------|----------------------|
|---------------------|----------------------|
|---------------------|----------------------|
|---------------------|----------------------|
|
|  H..              E   H..             E
|-11---------------11-|-9---------------9S===|
|---------------------|----------------------|
|---------------------|----------------------|
|---------------------|----------------------|
|---------------------|----------------------|
|---------------------|----------------------|
|
|tr I
|  E   E E E E E E  E   E   E E E E E E E
|------------1--------|-----------1----------|
|----------2---2----2-|---------2---2---2----|
|--------3-------3----|-------3-------3------|
|------3--------------|-----3----------------|
|--1------------------|----------------------|
|---------------------|-4--------------------|


                                           Outro
                                            H.=H
                            D.S. al Coda &
                      Bbm/Gb                Bbm/Gb
  E E +H.             +W                    W
|-------------------|--------------------||------------------|
|-2-4-(4)-----------|-(4)----------------||------------------|
|-------------------|--------------------||------------------|
|-------------------|--------------------||------------------|
|-------------------|--------------------||------------------|
|-------------------|--------------------||------------------|
|
| E E +H.             +W                    W
|-2-4-(4)-----------|-(4)----------------||------------------|
|-------------------|--------------------||------------------|
|-------------------|--------------------||------------------|
|-------------------|--------------------||------------------|
|-------------------|--------------------||------------------|
|-------------------|--------------------||------------------|
|
|                                           Gtrs I, II
| E E  E  E E E E E    E  E E E E E E E     E E E E E E E E
|-----------1-------|-----------1--------||---------1--------|
|---------2---2---2-|---------2---2---2--||-------2---2---2--|
|------3--------3---|-------3-------3----||-----3-------3----|
|---3---------------|-----3--------------||---3--------------|
|-------------------|--------------------||------------------|
|-4-----------------|--2-----------------||-2----------------|


         F7          F7sus4F7      Bbm
  Gtr I
   E E E  E +H        H     H       W
|------------------|-------^1----|-^1----*|
|-^2-----^1-(1)----|-^1----^1----|-^2----*|
|-^3-----^2-(2)----|-^3----^2----|-^3----*|
|-^3-----^1-(1)----|-^1----^1----|-^3----*|
|--------^3-(3)----|-^3----------|-^1----*|
|-^2-----^1-(1)----|-^1----------|-------*|
            
Submit corrections

↑ Back to top | Tablatures and chords for acoustic guitar and electric guitar, ukulele, drums are parodies/interpretations of the original songs. You may use it for private study, scholarship, research or language learning purposes only