Home » S » Steve Miller Band »

Steve Miller Band - Rock N Me Tabs

Artists:  A B C D E F G H I J K L M N O P Q R S T U V W X Y Z # 

Rock N Me Tabs

(ver. 2) Click to play this song!
Steve Miller Band
This is my first tab hope you enjoy :)
In the song. When I put 9/ its a quick slide all the way down the neck.
                        7/
And I believe the part where your 4h6 to 5 is what you call a grace so if you
                                         4
want to look that up to help you :) oh and another quick thing when i put
stars (these things **) that just means keep palm muting! When they stop,
stop palm muting! Enjoy

Tuning: Standard (E A D G B e)


Intro
e|----------------------------------------------------------------|
B|-----------------------------------5----5----5----5----5--------|
G|-----------------------------------4----4----4----4----4--------|
D|--------------------9-9--------4h6---4h6--4h6--4h6--4h6---------|
A|---7-7---9/------9--7-7--9/-------------------------------9/----|
E|---5-5---7/------7-------7/-------------------------------7/----| X2


e|--------------------------------------------------------------|
B|-----------------------------------5----5----5----5----5------|
G|-----------------------------------4----4----4----4----4------|
D|--------------------9-9--------4h6---4h6--4h6--4h6--4h6-------|
A|---7-7---9/------9--7-7--9/-----------------------------------|
E|---5-5---7/------7-------7/-----------------------------------| X1

But instead of sliding down the neck again you do this...

|-------------------------|
|-------------------------|
|-------------------------|
|-------------------------|
|------2-5b1/4---0--2-----|
|--2-5--------------------| X2

Verse
 PALM MUTE ALL
|------------------------------------------------------------------|
|------------------------------------------------------------------|
|------------------------------------------------------------------|
|------------------------------------------------------------------|
|-9-9-9-9-9-9-9-9-9-9-9-9-9-9-9-9--5-5-5-5-5-5-5-5-5-5-5-5-5-5-5-5-|
|-7-7-7-7-7-7-7-7-7-7-7-7-7-7-7-7--7-7-7-7-7-7-7-7-7-7-7-7-7-7-7-7-|

------------------------------------------------------------------|
------------------------------------------------------------------|
------------------------------------------------------------------|
-9-9-9-9-9-9-9-9-9-9-9-9-9-9-9-9----------------------------------|
-7-7-7-7-7-7-7-7-7-7-7-7-7-7-7-7--9-9-9-9-9-9-9-9-9-9-9-9-9-9-9-9-|
----------------------------------7-7-7-7-7-7-7-7-7-7-7-7-7-7-7-7-|X2

Chorus

|--------------------------------------------------------------------|
|--------------------------------------------------------------------|
|--------------------------------------------------------------------|
|--------------------------------------------------------------------|
|-9-9-9-9-9-9-9-9-9-9-9-11-12-11-9--7-7-7-7-7-7-7-7-7-7-7-7-9-10-9-7-|
|-7-7-7-7-7-7-7-7-7-7-7-7--7--7--7--5-5-5-5-5-5-5-5-5-5-5-5-5-5--5-5-|
  * * * * * * * * * * *             * * * * * * * * * * * * 
PALM MUTE_______________             PALM MUTE______________
-----------------------------------------------------------------------|
-----------------------------------------------------------------------|
-----------------------------------------------------------------------|
-9-9-9-9-9-9-9-9-9-9-9-9-11-12-11-9------------------------------------|
-7-7-7-7-7-7-7-7-7-7-7-7-7--7--7--7--9-9-9-9-9-9-9-9-9-9-9-9-11-12-11-9|
-------------------------------------7-7-7-7-7-7-7-7-7-7-7-7-7--7--7--7|X1
 * * * * * * * * * * * *             * * * * * * * * * * * * 
Verse
PALM MUTE ALL
|------------------------------------------------------------------|
|------------------------------------------------------------------|
|------------------------------------------------------------------|
|------------------------------------------------------------------|
|-9-9-9-9-9-9-9-9-9-9-9-9-9-9-9-9--5-5-5-5-5-5-5-5-5-5-5-5-5-5-5-5-|
|-7-7-7-7-7-7-7-7-7-7-7-7-7-7-7-7--7-7-7-7-7-7-7-7-7-7-7-7-7-7-7-7-|

------------------------------------------------------------------|
------------------------------------------------------------------|
------------------------------------------------------------------|
-9-9-9-9-9-9-9-9-9-9-9-9-9-9-9-9----------------------------------|
-7-7-7-7-7-7-7-7-7-7-7-7-7-7-7-7--9-9-9-9-9-9-9-9-9-9-9-9-9-9-9-9-|
----------------------------------7-7-7-7-7-7-7-7-7-7-7-7-7-7-7-7-|X1

Chorus

|--------------------------------------------------------------------|
|--------------------------------------------------------------------|
|--------------------------------------------------------------------|
|--------------------------------------------------------------------|
|-9-9-9-9-9-9-9-9-9-9-9-11-12-11-9--7-7-7-7-7-7-7-7-7-7-7-7-9-10-9-7-|
|-7-7-7-7-7-7-7-7-7-7-7-7--7--7--7--5-5-5-5-5-5-5-5-5-5-5-5-5-5--5-5-|
  * * * * * * * * * * *             * * * * * * * * * * * * 

-----------------------------------------------------------------------|
-----------------------------------------------------------------------|
-----------------------------------------------------------------------|
-9-9-9-9-9-9-9-9-9-9-9-9-11-12-11-9------------------------------------|
-7-7-7-7-7-7-7-7-7-7-7-7-7--7--7--7--9-9-9-9-9-9-9-9-9-9-9-9-11-12-11-9|
-------------------------------------7-7-7-7-7-7-7-7-7-7-7-7-7--7--7--7|X1
 * * * * * * * * * * * *             * * * * * * * * * * * * 
Re-Intro
e|----------------------------------------------------------------|
B|-----------------------------------5----5----5----5----5--------|
G|-----------------------------------4----4----4----4----4--------|
D|--------------------9-9--------4h6---4h6--4h6--4h6--4h6---------|
A|---7-7---9/------9--7-7--9/-------------------------------9/----|
E|---5-5---7/------7-------7/-------------------------------7/----| X2


e|--------------------------------------------------------------|
B|-----------------------------------5----5----5----5----5------|
G|-----------------------------------4----4----4----4----4------|
D|--------------------9-9--------4h6---4h6--4h6--4h6--4h6-------|
A|---7-7---9/------9--7-7--9/-----------------------------------|
E|---5-5---7/------7-------7/-----------------------------------| X1

|-------------------------|
|-------------------------|
|-------------------------|
|-------------------------|
|------2-5b1/4---0--2-----|
|--2-5--------------------| X2

Verse/Outro
PALM MUTE ALL
|------------------------------------------------------------------|
|------------------------------------------------------------------|
|------------------------------------------------------------------|
|------------------------------------------------------------------|
|-9-9-9-9-9-9-9-9-9-9-9-9-9-9-9-9--5-5-5-5-5-5-5-5-5-5-5-5-5-5-5-5-|
|-7-7-7-7-7-7-7-7-7-7-7-7-7-7-7-7--7-7-7-7-7-7-7-7-7-7-7-7-7-7-7-7-|

------------------------------------------------------------------|
------------------------------------------------------------------|
------------------------------------------------------------------|
-9-9-9-9-9-9-9-9-9-9-9-9-9-9-9-9----------------------------------|
-7-7-7-7-7-7-7-7-7-7-7-7-7-7-7-7--9-9-9-9-9-9-9-9-9-9-9-9-9-9-9-9-|
----------------------------------7-7-7-7-7-7-7-7-7-7-7-7-7-7-7-7-|X2

Well there you have it. If you have any problems reading or just need some help the the 
leave a comment I'll be glad to help :)
HOPE YOU ENJOYED THE TAB!
            
Submit corrections

↑ Back to top | Tablatures and chords for acoustic guitar and electric guitar, ukulele, drums are parodies/interpretations of the original songs. You may use it for private study, scholarship, research or language learning purposes only