Home » S » Steve Miller Band »

Steve Miller Band - Fly Like An Eagle Tabs

Artists:  A B C D E F G H I J K L M N O P Q R S T U V W X Y Z # 

Fly Like An Eagle Tabs

(ver. 4) Click to play this song!
Steve Miller Band
 Rating:
4.4/5 (11 votes)
                
[Intro]
  Q=95
  N.C.       Am7
 4/4
  Gtr I (Clean El. Gtr.)
   W          S S S S S E S S S E Q    S S S S S E S S S Q.
e|----------|------------------------|------------------------|
B|----------|------------------------|------------------------|
G|----------|-------5---5-------7-5--|-------5---5-------5----|
D|----------|-----7-5---5-5-----7-5--|-----7-5---5-5-----5----|
A|----------|-7h9-----------7h9------|-7h9-----------7h9------|
E|----------|------------------------|------------------------|

                                                    N.C.
                                                     PM-----------------~~
   S S S S S E S S S E Q    S S S S S E S S S Q.     E. S +E  S S E E S E.
e|------------------------|------------------------|-----------------------|
B|------------------------|------------------------|-----------------------|
G|-------5---5-------7-5--|-------5---5-------5----|-----------------------|
D|-----7-5---5-5-----7-5--|-----7-5---5-5-----5----|--------------7-7-7-5--|
A|-7h9-----------7h9------|-7h9-----------7h9------|-----------------------|
E|------------------------|------------------------|-5--3-(3)-5-5----------|

   PM---------|       ~    PM-----------------|     PM---------|       ~
   E. S +E  S S E S S Q    E. S +E  S S E E S E S   E. S +E  S S E S S Q
e|-----------------------|------------------------|-----------------------|
B|-----------------------|------------------------|-----------------------|
G|-----------------------|------------------------|-----------------------|
D|--------------------5--|--------------7-7-7-5---|--------------------5--|
A|----------------5h7----|------------------------|----------------5h7----|
E|-5--3-(3)-5-5----------|-5--3-(3)-5-5-----------|-5--3-(3)-5-5----------|

   PM---------|            PM---------|        PM---------|
   E. S +E  S S E E S E.   E. S +E  S S H      E. S +E  S S H
e|-----------------------|-------------------|-------------------|
B|-----------------------|-------------------|-------------------|
G|-----------------------|-------------------|-------------------|
D|-----------------------|-------------------|-------------------|
A|-----------------------|-------------------|-------------------|
E|-5--3-(3)-5-5-5-5-5-3--|-5--3-(3)-5-5------|-5--3-(3)-5-5------|

[1st Verse]
                       N.C.
   PM---------|         PM---------|        PM-----------|
   E. S +E  S S H       E. S +E  S S H      E. S +S  S S S H
e|-------------------||-------------------|---------------------|
B|-------------------||-------------------|---------------------|
G|-------------------||-------------------|---------------------|
D|-------------------||-------------------|---------------------|
A|-------------------||-------------------|---------------------|
E|-5--3-(3)-5-5------||-5--3-(3)-5-5------|-5--3-(3)-x-5-5------|

   PM-----------|            PM---------|
   E. S +S  S S S Q  E S S   E. S +E  S S Q  S S S S   E S S E S S H
e|-------------------------|-------------------------|------------------|
B|-------------------------|-------------------------|------------------|
G|-------------------------|-------------------------|------------------|
D|-------------------------|-------------------------|------------------|
A|-------------------------|-------------------------|------------------|
E|-5--3-(3)-x-5-5------x-x-|-5--3-(3)-5-5----x-x-x-x-|-5---3---5-5------|

   PM-----------|
   E. S +S  S S S Q  E S S
e|-------------------------|
B|-------------------------|
G|-------------------------|
D|-------------------------|
A|-------------------------|
E|-5--3-(3)-x-5-5------x-x-|

   PM---------|                 PM---------|        ~
   E. S +E  S S E S S S S S S   E. S +E  S S Q  S S E
e|----------------------------|-----------------------||
B|----------------------------|-----------------------||
G|----------------------------|-----------------------||
D|----------------------------|---------------------5-||
A|----------------------------|-----------------5h7---||
E|-5--3-(3)-5-5---x-x-x-x-x-x-|-5--3-(3)-5-5----------||

[Chorus]
  N.C.
   Q.   E +Q   S S S S   H    Q  S S E   H    Q  S S S S
e|---------------------|---------------|------------------|
B|---------------------|---------------|------------------|
G|---------------------|---------------|------------------|
D|-----------------5h7-|-------------5-|-------------5h7--|
A|-------------5h7-----|---------5h7---|---------5h7------|
E|-5----5-(5)----------|-5-------------|-5----------------|

  E Q.   Q  S S E   E Q.   Q  S S E   E Q.   Q  S S E
e|-----------------|-----------------|-----------------|
B|-----------------|-----------------|-----------------|
G|-----------------|-----------------|-----------------|
D|---------------5-|---------------5-|---------------5-|
A|-----------5h7---|-----------5h7---|-----------5h7---|
E|-5-5-------------|-5-5-------------|-5-5-------------|

[2nd Verse]
                                       N.C.
                                        PM---------|
   E Q.   S S E S S S S   H.      Q     E. S +E  S S Q  S S S S
e|----------------------|------------||-------------------------|
B|----------------------|------------||-------------------------|
G|----------------------|------------||-------------------------|
D|------------------5h7-|------------||-------------------------|
A|--------------5h7-----|------------||-------------------------|
E|-5-5----5-5-5---------|-5----------||-5--3-(3)-5-5----x-x-x-x-|

   PM---------------------------------|        PM---|     PM|   PM------|
   E. S +E  E E E S E.   E. S +S  S S S H      E. S +S  S S S S S E S S E
e|---------------------|---------------------|----------------------------|
B|---------------------|---------------------|----------------------------|
G|---------------------|---------------------|----------------------------|
D|------------7-7-7-5--|---------------------|----------------------------|
A|---------------------|---------------------|----------------------------|
E|-5--3-(3)-5----------|-5--3-(3)-0-5-5------|-5--3-(3)-0-5-5---x-x-x-x-x-|

   PM---------|   PM----|     PM---------|        PM---------|
   E. S +E  S S E S S S S E   E. S +E  S S H      E. S +E  S S H
e|--------------------------|-------------------|-------------------|
B|--------------------------|-------------------|-------------------|
G|--------------------------|-------------------|-------------------|
D|--------------------------|-------------------|-------------------|
A|--------------------------|-------------------|-------------------|
E|-5--3-(3)-5-5---x-x-x-x---|-5--3-(3)-5-5------|-5--3-(3)-5-5------|

[Chorus]
                           N.C.
   PM---------|
   E. S +E  S S Q  S S E    H.      S S E   H    Q  S S E
e|-----------------------||---------------|---------------|
B|-----------------------||---------------|---------------|
G|-----------------------||---------------|---------------|
D|---------------------5-||-------------7-|-------------7-|
A|-----------------5h7---||---------5h7---|---------5h7---|
E|-5--3-(3)-5-5----------||-5-------------|-5-------------|

   E Q.   +Q   S S S S   E S S +Q   +E  S S S S S S   E E E. S +E  E S S E
e|---------------------|----------------------------|----------------------|
B|---------------------|----------------------------|----------------------|
G|---------------------|----------------------------|----------------------|
D|-----------------5h7-|--------------------5-----5-|-7------------------5-|
A|-------------5h7-----|----------------5h7---5h7---|--------------5-5h7---|
E|-5-5----(5)----------|-5-5-5-(5)--(5)-------------|---5-5--5-(5)---------|

 [3rd Verse]
                                                    N.C.
   a E E H    S S S S   E Q.   +Q   Q    W           W
e|--------------------|----------------|----------||------|
B|--------------------|----------------|----------||------|
G|--------------------|----------------|----------||------|
D|----------------5h7-|-7--------------|----------||------|
A|-5h7-5------5h7-----|----------------|----------||------|
E|-------8------------|---5----(5)-----|----------||------|

             PM|           PM|             PM|
   W          E E Q  H      E E Q  H        E E Q  Q  E. S
e|----------|-------------|-------------||-----------------|
B|----------|-------------|-------------||o----------------|
G|----------|-------------|-------------||-----------------|
D|----------|-------------|-------------||-----------------|
A|----------|-------------|-------------||o----------------|
E|----------|-3-5---------|-3-5---------||--3-5----------0-|
                                   1.,2.              3.
   PM|              PM|              PM|                PM|
   E E Q  Q  E. S   E E Q  Q  E. S   E E Q  Q  E. S  3x E E Q  S S E Q
e|----------------|----------------|-----------------||------------------||
B|----------------|----------------|----------------o||------------------||
G|----------------|----------------|-----------------||------------------||
D|----------------|----------------|-----------------||------------------||
A|----------------|----------------|----------------o||------------------||
E|-3-5----------0-|-3-5----------0-|-3-5----------0--||-3-5------5p3-----||

[Bridge]
   N.C.
         PM|                   PM|
   Q  S S S S S S S S S S S S   E E S S S S S S S S S S S S
e|----------------------------|-----------------------------|
B|----------------------------|-----------------------------|
G|----------------------------|-----------------------------|
D|----------------------------|-----------------------------|
A|----------------------------|-----------------------------|
E|-5--x-x-5-5-x-x-x-x-x-x-x-x-|-3-5-x-x-x-x-x-x-x-x-x-x-x-x-|

   PM------------|
   S S S S +E  S S S S S S S S S S
e|-----------------------------------|
B|-----------------------------------|
G|-----------------------------------|
D|-----------------------------------|
A|-----------------------------------|
E|-3-5-5-5-(5)-5-5-x-x-x-x-x-x-x-x---|

   PM------------|                   PM----|
   S S S S +E  S S S S S S S S S S   S S S S S S S S S S S S S S S S
e|---------------------------------|---------------------------------|
B|---------------------------------|---------------------------------|
G|---------------------------------|---------------------------------|
D|---------------------------------|---------------------------------|
A|---------------------------------|---------------------------------|
E|-3-5-5-5-(5)-5-5-x-x-x-x-x-x-x-x-|-3-5-5-5-x-x-x-x-x-x-x-x-x-x-0-3-|

   PM|                           PM|
   E E S S S S S S S S S S S S   E E S S S S S S S S S S S S
e|-----------------------------|-----------------------------|
B|-----------------------------|-----------------------------|
G|-----------------------------|-----------------------------|
D|-----------------------------|-----------------------------|
A|-----------------------------|-----------------------------|
E|-5-5-x-x-x-x-x-x-x-x-x-x-x-x-|-3-5-x-x-x-x-x-x-x-x-x-x-x-x-|

[Chorus]
                         N.C.
   PM|                    PM----------------------------------------------|
   E E Q  S S S S S E.    Q  E S S +S  E S S E S   Q  E S S +S  S E S S S S
e|---------------------||------------------------|--------------------------|
B|---------------------||------------------------|--------------------------|
G|---------------------||------------------------|--------------------------|
D|------------5---5h7--||------------------------|--------------------------|
A|--------5h7---7------||------------------------|--------------------------|
E|-3-5-----------------||-5--5-5-5-(5)-5-5-5-5-5-|-5--5-5-5-(5)-5-5-5-5-5-5-|

   PM------------------------
   Q  E S S +S  S S S S S E
e|--------------------------|
B|--------------------------|
G|--------------------------|
D|--------------------------|
A|--------------------------|
E|-5--5-5-5-(5)-5-5-5-5-5-5-|

  -----------------|           PM------------------|
   E S S E S S S S E a S S E   E E E S S S E S S E S
e|---------------------------|------------------------|
B|---------------------------|------------------------|
G|---------------------------|------------------------|
D|-------------------5h7-5---|------------------------|
A|-------------------------7-|------------------------|
E|-5-5-5-5-5-5-5-5-5---------|-5-5-5-5-5-5-5-5-5-5-5--|

   PM------------------------------------------------|       PM--------|
   Q  E S S +S  S E S S S S   Q  E S S +S  E S S S S S   E E E S S +E  Q.
e|--------------------------|--------------------------|--------------------||
B|--------------------------|--------------------------|--------------------||
G|--------------------------|--------------------------|--------------------||
D|--------------------------|--------------------------|--------------------||
A|--------------------------|--------------------------|--------------------||
E|-5--5-5-5-(5)-5-5-5-5-5-5-|-5--5-5-5-(5)-5-5-5-5-5-5-|-5-5-5-5-5-(5)-5----||

[Interlude]
   N.C.
            PM--|      PM-----------|          PM---------|
   H    Q  S S S S   Q  E S S Q  E S S   Q  S S S S Q  E S S
e|-----------------|-------------------|---------------------|
B|-----------------|-------------------|---------------------|
G|-----------------|-------------------|---------------------|
D|-----------------|-------------------|---------------------|
A|-----------------|-------------------|---------------------|
E|-----------0-3-5-|------5-5------5-5-|------x-5-5------5-5-|

   PM    PM-------------|     PM---------|     PM----|
   E E E S S Q  E S S   E E E S S Q  E S S   E e E S S H
e|--------------------|--------------------|----------------|
B|--------------------|--------------------|----------------|
G|--------------------|--------------------|----------------|
D|--------------------|--------------------|----------------|
A|--------------------|--------------------|----------------|
E|-5-----5-5------5-5-|-5-----5-5------5-5-|---5---5-5------|

   PM--------|        PM-------------------------------|
   S S E E S S H      S S E E S S H        S S E E S S H
e|------------------|------------------||-------------------|
B|------------------|------------------||o------------------|
G|------------------|------------------||-------------------|
D|------------------|------------------||-------------------|
A|------------------|------------------||o------------------|
E|-5-5-----5-5------|-5-5-----5-5------||--5-5-----5-5------|

   PM------------------------------------------------|
   S S E S S S S H      S S E E S S H      S S E E S S H
e|--------------------|------------------|-------------------||
B|--------------------|------------------|------------------o||
G|--------------------|------------------|-------------------||
D|--------------------|------------------|-------------------||
A|--------------------|------------------|------------------o||
E|-5-5-----5-5-5------|-5-5-----5-5------|-5-5-----5-5-------||            
Submit corrections

↑ Back to top | Tablatures and chords for acoustic guitar and electric guitar, ukulele, drums are parodies/interpretations of the original songs. You may use it for private study, scholarship, research or language learning purposes only