» » »

Steriogram - Just Like You Tabs

Artists:  A B C D E F G H I J K L M N O P Q R S T U V W X Y Z # 

Just Like You Tabs

(ver. 1) Click to play this song!
Steriogram
 Rating:
4.7/5 (12 votes)

 Just Like You lessons Tabs too difficult? Try these video lessons and learn fast
 
                Steriogram


standard tuning

Tim's Guitar/intro
-------------------------------------------------------------------|
---------------13----13-12-13----13-12-13----13-12-13-14--14-13----|
-------------------------------------------------------------------|
-------------------------------------------------------------------|
-------------------------------------------------------------------|
-------------------------------------------------------------------|


Brad's Guitar/verse

whats happenin, whats crackin'.......
----------------------------------------------------------------------|
----------------------------------------------------------------------|
----------------------------------------------------------------------|
---0-0---0-5-0---------2---3-3-2-----0-0-3-0-5-0---------2---3-3-2----|
---------------4-3---3---3-------3---------------4-3---3---3-------3--|
----------------------------------------------------------------------|


chorus
just like you...just like to...     overstate intoxicated...relocate sophisticated
--------------------------------------------------------------------------|
--------------------------------------------------------------------------|
-----------------------------------------7-7---7----------------7-7---7---|
--8-8-8-8------------5-5-5-5-------------7-7---7----------------7-7---7---|
--8-8-8-8------------5-5-5-5-------------5-5---5----------------5-5---5---|
--6-6-6-6------------3-3-3-3----------------------------------------------|



just wanna let it be...just wanna let it fly....stop staring in my eyes.....
-----------------------------------------------------------|
-----------------------------------------------------------|
-----------------------------------------------------------|
--8-8-8-8------------5-5-5-5---------3-3-3-3-----7-7-7-7---|
--8-8-8-8------------5-5-5-5---------3-3-3-3-----7-7-7-7---|
--6-6-6-6------------3-3-3-3---------1-1-1-1-----5-5-5-5---|


i know that you wont stay...know that you wont be....
----------------------------------------------------------------------------|
----------------------------------------------------------------------------|
-------------------------------------------------5-5-5-5---6-6-6-6--7-7-7---|
--8-8-8-8------------5-5-5-5---------3-3-3-3-----5-5-5-5---6-6-6-6--7-7-7---|
--8-8-8-8------------5-5-5-5---------3-3-3-3-----3-3-3-3---4-4-4-4--5-5-5---|
--6-6-6-6------------3-3-3-3---------1-1-1-1--------------------------------|
            
Submit corrections


        Just Like You lessons Hard to play? Try these video lessons and learn fast Just Like You lessons
        
↑ Back to top | Tablatures and chords for acoustic guitar and electric guitar, ukulele, drums are parodies/interpretations of the original songs. You may use it for private study, scholarship, research or language learning purposes only