Home » S » Stephen Speaks »

Stephen Speaks - Out Of My League Tabs

Artists:  A B C D E F G H I J K L M N O P Q R S T U V W X Y Z # 

Out Of My League Tabs

(ver. 3) Click to play this song!
Stephen Speaks
Intro (capo 5)
e|----3--2-0------------|----3--2-0--0--2--3-2-0|----3--2-0------------|
b|---3------3----0--1-0-|---3------3------------|---3------3----0--1-0-|
g|-0----------2--------2|-0---------------------|-0----------2--------2|
d|-0--------------------|-0---------------------|-0--------------------|
a|-------0----2-2-------|-------0----3-3---2----|-------0----2-2-------|
E|------------------0---|-----------------------|------------------0---|

e|----------------------|---3-2--0-----------|---3-2--0---0------0-2|
b|----0---------------0-|-----------2-2----0-|-----------3----------|
g|-0-2--2--0-0-----0---2|-0-----------------2|-0----------------0---|
d|-0-----------2-4------|-------------0------|------------0-2-4--4--|
a|------3----2----------|-3------2-----------|-3------2-------------|
E|-----------------3----|----------------3---|----------------------|

e|-3-5-3-3-5-3-3-5-33-2-0-3-2--0----0--------|---3-2--0-----------|
b|--------------------------------3--------0-|-----------2-2----0-|
g|------------------------------------------2|-0-----------------2|
d|-------------------------------------------|-------------0------|
a|-3-----2-----0-----2----3----2-------------|-3------2-----------|
E|----------------------------------0--2-3-2-|----------------3---|

e|---3-2--0---0------0-2|-3-5-3-3-5-3-3-5-33-5-3-3-5-3-3-5-3-3-5-33-3-5|
b|-----------3----------|----------------------------------------------|
g|-0----------------0---|----------------------------------------------|
d|------------0-2-4--4--|----------------------------------------------|
a|-3------2-------------|-3-----2-----0-----2----3-----2-----0-----2---|
E|----------------------|----------------------------------------------|

Chorus
e|-7--3-8-7-5-7----3-5-7--3-8-7-5-7----3-5-7-5-3-2-3-5-3-2-0---0-2-3-2-0---3-2-3|
b|-----------------------------------------------------------3-----------3------|
g|------------------------------------------------------------------------------|
d|------------------------------------------------------------------------------|
a|------3--------3----------3--------------3-----2-----0-----------3-----2------|
E|-3----------3--------3----------0--2-----------------------3------------------|

e|----3--2-0------------|----3--2-0--0--2--3-2-0|----3--2-0------------|
b|---3------3----0--1-0-|---3------3------------|---3------3----0--1-0-|
g|-0----------2--------2|-0---------------------|-0----------2--------2|
d|-0--------------------|-0---------------------|-0--------------------|
a|-------0----2-2-------|-------0----3-3---2----|-------0----2-2-------|
E|------------------0---|-----------------------|------------------0---|

e|----------------------|---3-2--0-----------|---3-2--0---0------0-2|
b|----0---------------0-|-----------2-2----0-|-----------3----------|
g|-0-2--2--0-0-----0---2|-0-----------------2|-0----------------0---|
d|-0-----------2-4------|-------------0------|------------0-2-4--4--|
a|------3----2----------|-3------2-----------|-3------2-------------|
E|-----------------3----|----------------3---|----------------------|

e|-3-5-3-3-5-3-3-5-33-5-3-3-5-3-3-5-3-3-5-33-3-5|
b|----------------------------------------------|
g|----------------------------------------------|
d|----------------------------------------------|
a|-3-----2-----0-----2----3-----2-----0-----2---|
E|----------------------------------------------|
            
Submit corrections

↑ Back to top | Tablatures and chords for acoustic guitar and electric guitar, ukulele, drums are parodies/interpretations of the original songs. You may use it for private study, scholarship, research or language learning purposes only