Home » S » Stephen Speaks »

Stephen Speaks - Passenger Sat Tabs

Artists:  A B C D E F G H I J K L M N O P Q R S T U V W X Y Z # 

Passenger Sat Tabs

(ver. 1) Click to play this song!
Stephen Speaks
Tab is at the bottom part

Standard tuning: both guitars

These chords are for guitar with capo on the 5th fret
The chords for the second guitar are found at the bottom part

Intro: 2X
D - D9 - Bm7 - G - A7sus - A7 - A9 - A7


Stanza I:
D         D9              Bm7
I look at her and have to smile
                       G
As we go driving for a while
                        A7sus          A7 A9   A7
Her hair blowing in the open window of my car, and
D     D9               Bm7
As we go, the traffic lights
                            G
I watch them glimmer in her eyes
                       A7sus - A7 - A9 - A7
In the darkness of the evening


Chorus:
    D        D9          Bm7
And I've got all that I need
                  G               A7sus - A7 - A9 - A7 
Right here in the passenger seat
       D            D9              Bm7
Oh and I can't keep my eyes on the road,
                   G              A7sus - A7 - A9 - A7
Knowing that she's inches from me


Stanza II:
D          D9			   Bm7
We stop to get something to drink
				G
My mind clouds and I can't think
			     A7sus - A7 - A9 - A7
Scared to death to say I love her
D            D9 		      Bm7
And then the moon peeks from the clouds
				  G
I hear my heart it beats so loud
                A7sus - A7 - A9 - A7
Try to tell her simply


Repeat Chorus: 2X


Bridge:
       D Bm7
Oh and I know
D          A7sus - A7
This love grows

Adlib: 2X
D - D9 - Bm7 - G - A7sus - A7 - A9 - A7


Chorus:
Oh and I've got all that I need
Right here in the passenger seat
Oh and I can't keep my eyes on the road,
                     A7sus - A7 - A9 - A7
Knowing that she's inches from me


Repeat Chorus: 2X along with Stanza I

Outro: along with first two line of Stanza I
       D
Oh and I've got all that I need
Right here in the passenger seat





/ - slide
h - hammer on
p - pull off

Intro: 

Guitar 1: Capo 5
e----------------2---0-------|
B-------3-----3--3---3-------|
G-----2---0h2----2---2-------|
D---0------------0---0-------|
A----------------------------|
E----------------------------|
                 ^ start strumming here
                   followed by: Bm7 - G - A7sus - A7 - A9 - A7

Guitar 2: No Capo
Start strumming after intro was played the second time.
Just play the equivalent chords for guitar 2 from guitar 1. 

Chords for Guitar 1:   D   D9     Bm7   G    A7sus   A7   A9   A7
Chords for Guitar 2:   G   G/F#   Em    C    D7      D9   D7   D7sus


Adlib part: for guitar 1 or guitar 2
e-------------------------------------------------------
B--------------------8h10p8--10^--8h10p8----------------
G----------------7-9---------------------9--------------
D-----------9-10----------------------------------------
A---12^--10---------------------------------------------
E-------------------------------------------------------


e-------------------------------------------------------
B-------------------------------------------------------
G-------------------------------------------------------
D---9-10-9-10/12----12-10-9-9h10----12-10-9-9h10--------
A-------------------------------------------------------
E-------------------------------------------------------


e-------------------------------------------------------
B--------------------------8-10-10/13-12-13-12-13/15----
G------------7h9^v(9)-7h9-------------------------------
D-----9-9/10--------------------------------------------
A--10---------------------------------------------------
E-------------------------------------------------------


e-------------------------------------------------------
B--13-12-12--12/13--10-------8--8h10--10h8--7h8--8------
G-------------------------------------------------------
D-------------------------------------------------------
A-------------------------------------------------------
E-------------------------------------------------------


e-------------------------------------------------------
B-------------------------------------------------------
G-------------------------------------------------------
D--12^--10--10h12--9---12^---12^---10-------------------
A-------------------------------------------------------
E-------------------------------------------------------



Chords used: 
     D   D9   Bm7  G   A7sus  A7   A9   G/F#   Em   C   D7   D9  D7sus
e----2---0----2----3----0-----0----0-----3-----0----0---2----0----3-----|
B----3---3----3----3----3-----2----0-----3-----0----1---1----1----1-----|
G----2---2----2----0----0-----0----0-----0-----0----0---2----2----2-----|
D----0---0----4----0----2-----2----2-----0-----2----2---0----0----0-----|
A----x---x----2----2----0-----0----0-----x-----2----3---x----x----x-----|
E----x---x----x----3----x-----x----x-----2-----0----x---x----x----x-----|
            
Submit corrections

↑ Back to top | Tablatures and chords for acoustic guitar and electric guitar, ukulele, drums are parodies/interpretations of the original songs. You may use it for private study, scholarship, research or language learning purposes only