» » »

Stephen Lynch - Special Olympics Tabs

Artists:  A B C D E F G H I J K L M N O P Q R S T U V W X Y Z # 

Special Olympics Tabs

(ver. 1) Click to play this song!
Stephen Lynch
 Rating:
4/5 (4 votes)

 Special Olympics lessons Tabs too difficult? Try these video lessons and learn fast
 
                Stephen Lynch- Special Olympics
I tabbed version with 1 verse because in the second one he did on Opie and Anthony
the guitar was really hard to hear.

All you have to do if form a C chord and move it up two frets, then placing your 
pinkie on fret 5 of the high e string.
Intro
e-------------------5----------------------------------5------------|
B------------3-----------3----------------------3-----------3-------|
G------0-----------------------0-----------0--------------------0---|
D-------------------------------------------------------------------|
A--5-----------------------------------5----------------------------|
E-------------------------------------------------------------------|

Watch them run, watch them fall, 

e-------------------0----------------|
B------------3-----------3-----------|
G------0-----------------------0-----|
D------------------------------------|
A--5---------------------------------|
E------------------------------------|

watch them try to catch a ball

e----------------0----------------------------0------------------------0----------------------0----|
B-----------3--------3-------------------3-------3----------------3------3---------------3--------|
G------0-----------------0---------0-----------------0-------0---------------0-------0-----------|
D----------------------------------------------------------------------------------------------------|
A--3---------------------------2--------------------------0-----------------------0----------------|
E-----------------------------------------------------------------------------------------------------|
Olympics,                          Special Olympics

Repeat that same thing, end by picking this

e---------------------2-------------------------2---------------------------2---|
B---------------3---------3----------------3--------3-----------------3---------|
G---------0-------------------0-------0-----------------0--------0--------------|
D-------------------------------------------------------------------------------|
A---3-----------------------------3--------------------------3------------------|
E-------------------------------------------------------------------------------|

When the lyrics come back...

e----------------------3-----------------------------3-------------|
B----------------3----------3------------------3---------3---------|
G----------0--------------------0---------0------------------0-----|
D------------------------------------------------------------------|
A----3--------------------------------3----------------------------|
E------------------------------------------------------------------|
And I know full well

e-----------------------2-----------------------------2----------------------------2----------|
B-----------------3----------3-------------------3--------3------------------3--------3-----|
G----------0----------------------0---------0------------------0--------0----------------0--|
D-----------------------------------------------------------------------------------------------|
A----3----------------------------------2----------------------------0-------------------------|
E------------------------------------------------------------------------------------------------|
That I                                       will                                burn in hell

e---------------------3----------------------------3------------------------------3------------|
B---------------3---------3------------------3---------3--------------------3--------3-------|
G---------0-------------------0---------0------------------0-----------0----------------0----|
D------------------------------------------------------------------------------------------------|
A------------------------------------------------------------------------------------------------|
E----3------------------------------3------------------------------3----------------------------|
But those wheel chair basketball guys gotta be the funniest friggin thing I've
ever seen in my life

e------------------------0------------------------------0----------------------0-------------0------|
B-----------------3-----------3-------------------3---------3------------3--------3----------------|
G-----------0----------------------0---------0-----------------0-----0----------------0------------|
D------------------------------------------------------------------------------------------------------|
A----3-----------------------------------3-------------------------3---------------------------------|
E------------------------------------------------------------------------------------------------------|
At the Special Olympics____________


Yeah thats it, if you want to you could extend it into the next verse but when Lynch plays
the version with the 2nd verse he changes the guitar a bit of the whole song, I'm too lazy to
tab it so make do with this and rock on. Can a get some ratings? Even comments, positive,
negative whatever.
            
Submit corrections


        Special Olympics lessons Hard to play? Try these video lessons and learn fast Special Olympics lessons
        
↑ Back to top | Tablatures and chords for acoustic guitar and electric guitar, ukulele, drums are parodies/interpretations of the original songs. You may use it for private study, scholarship, research or language learning purposes only