» » »

Stephen Lynch - Special Ed Tabs

Artists:  A B C D E F G H I J K L M N O P Q R S T U V W X Y Z # 

Special Ed Tabs

(ver. 2) Click to play this song!
Stephen Lynch
 Rating:
4/5 (4 votes)

 Special Ed lessons Tabs too difficult? Try these video lessons and learn fast
 
                d for downstroke & u for upstroke
    A          Esus
    d    d u   d    d u 
----2----2-2---0----0-0--------------------------------------------------------------
----2----2-2---2----2-2--------------------------------------------------------------
----2----2-2---2----2-2--------------------------------------------------------------
----0----0-0---2----2-2--------------------------------------------------------------

This is an A Chord:
    o          (o)
 ================
 |  |  |  |  |  |
 ----------------
 |  |  2  2  2  |
 ----------------
 |  |  |  |  |  |
 ----------------
 |  |  |  |  |  |
 ----------------

This is an Esus Chord:
(o)          o (o)
 ================
 |  |  |  |  |  |
 ----------------
 |  2  2  2  |  |
 ----------------
 |  |  |  |  |  |
 ----------------
 |  |  |  |  |  |
 ----------------
I E-mail the other part some other day. THe Part above is the Verses and Intro.
            
Submit corrections


        Special Ed lessons Hard to play? Try these video lessons and learn fast Special Ed lessons
        
↑ Back to top | Tablatures and chords for acoustic guitar and electric guitar, ukulele, drums are parodies/interpretations of the original songs. You may use it for private study, scholarship, research or language learning purposes only