Home » S » Stellar Kart »

Stellar Kart - Me And Jesus Tabs

Artists:  A B C D E F G H I J K L M N O P Q R S T U V W X Y Z # 

Me And Jesus Tabs

(ver. 3) Click to play this song!
Stellar Kart
----------------------------------------------------------------------------
                             Me and Jesus - Stellar Kart
----------------------------------------------------------------------------

Tuning:Standard

e|--------------------------------------------------------------------------|
B|--------------------------------------------------------------------------|
G|--------------------------------------------------------------------------|
D|--------------------------------------------------------------------------|
A|-4------------------------------------------------------------------------|
E|--------------------------2------6---------------------4------------------|
   x     repeat 4 measures  x "    x repeat 2 measures   x "
e|--------------------------------------------------------------------------|
B|--------------------------------------------------------------------------|
G|-6------------------------------------------------------------------------|
D|-6-----------------------6-----------------9--------------4---------------|
A|-4-----------------------6-----------------9--------------4---------------|
E|-------------------------4-----------------7--------------2---------------|
  "some one loves you....  so don't you know you got me and Jesus
   by your side through the fight you will never be alone on your own. you
   got me and Jesus

             Same thing for second verse and second chorus

                               Bridge
e|--------------------------------------------------------------------------|
B|--------------------------------------------------------------------------|
G|------------------------------?-------------------------------------------|
D|--------------------------------------------------------------------------|
A|--------------------------------------------------------------------------|
E|--------------------------------------------------------------------------|
                               Solo
e|--------------------------------------------------------------------------|
B|--------------------------------------------------------------------------|
G|--------------------------------------------------------------------------|
D|--------------------6-----------------------------------------------------|
A|8-9-8-6-8-9-8-9-8-6-6-------------9-9-9-9---------------------------------|
E|--------------------4-4-6-7-7-7-7-----------------------------------------|

e|--------------------------------------------------------------------------|
B|--------------------------------------------------------------------------|
G|--------------------------------------------------------------------------|
D|-6----------6-----9-9-9-9----4-4-4-4--------------------------------------|
A|-6----------6-----9-9-9-9----4-4-4-4--------------------------------------|
E|-4----------4-----7-7-7-7----2-2-2-2--------------------------------------|
   let ring   x
                      repeat chorus

e|--------------------------------------------------------------------------|
B|--------------------------------------------------------------------------|
G|--------------------------------------------------------------------------|
D|---------6----------------------------------------------------------------|
A|---------6----------------------------------------------------------------|
E|---------4----------------------------------------------------------------|
    end on

| /  slide up
| \  slide down
| h  hammer-on
| p  pull-off
| ~  vibrato
| +  harmonic
| x  Mute note
============================================================================
            
Submit corrections

↑ Back to top | Tablatures and chords for acoustic guitar and electric guitar, ukulele, drums are parodies/interpretations of the original songs. You may use it for private study, scholarship, research or language learning purposes only