Home » S » Stellar Kart »

Stellar Kart - A Love Song Tabs

Artists:  A B C D E F G H I J K L M N O P Q R S T U V W X Y Z # 

A Love Song Tabs

(ver. 2) Click to play this song!
Stellar Kart
(Intro)
#---------------------------------------------------------------------------

                               A Love Song Intro
                               By Stellar Kart

Music by Stellar Kart
My first tab. Just the basic intro chords to the song.

 


Gtr I (E A D G B e) 
 
|--------------------------------|
|--------------------------------|
|--------------------------------|
|--------------------------------|
|--9-9-9--7--5----5-5-5--7--9----|
|--7-7-7--5--3----3-3-3--5--7----|


|--------------------------------|
|--------------------------------|
|--------------------------------|
|--------------------------------|
|--9-9-9--7--5----5-5-5--7--12---|
|--7-7-7--5--3----3-3-3--5--10---|


That's reapeated a lot throughout the song. Hope you enjoyed my first tab!
            
Submit corrections

↑ Back to top | Tablatures and chords for acoustic guitar and electric guitar, ukulele, drums are parodies/interpretations of the original songs. You may use it for private study, scholarship, research or language learning purposes only