» » »

Stellar Kart - Activate Tabs

Artists:  A B C D E F G H I J K L M N O P Q R S T U V W X Y Z # 

Activate Tabs

(ver. 1) Click to play this song!
Stellar Kart
 Rating:
3.4/5 (10 votes)

 Activate lessons Tabs too difficult? Try these video lessons and learn fast
 
                -------------------------------------------------------------------
-------------------------------------------------------------------


Notes: Figure out the strumming pattern... For guitar 1s part in 
the chorus, it IS actually in the albumversion, just really REALLY
 quiet... very hard to hear. If you listen to a live version you'll
hear it perfectly though. 

Key:
Palm Mute - *
Bend string - b
Release string - r
Strike string (dead note) - x
Let ring - ~

Main strumming pattern:
v = down
^ = up
_ = blank

v_v_v^v^_^v_v^v^v_v_v^v^_^v_v^v^v_v_v^v^_^v_v^v^v_v_v^v^_^v_v^v^ 

(Pretty sure that's right...)


Intro
Guitar 1
e|----------------------------------------------------------------|
B|-0-7-7-5--4--5--4-5-7-0-7-7-5--4--5--4-5-4----------------------|
G|----------------------------------------------------------------|
D|----------------------------------------------------------------|
A|----------------------------------------------------------------|
E|----------------------------------------------------------------|

|-----------------------------------------------------------------|
|-0-7-7-5--4--5-4-5-7-0-5-5-4--5--4-5--4-5-4-0--------------------|
|-----------------------------------------------------------------|
|-----------------------------------------------------------------|
|-----------------------------------------------------------------|
|-----------------------------------------------------------------|
They mess the timing up here. make your own up; it works fine

Guitar 2
|-----------------------------------------------------------------|
|-----------------------------------------------------------------|
|-4--4--4-4-4-----------------------------------------------------|
|-4--4--4-4-4-4--4-4--4-4-4-6--6--6-6--6-2--2-2--2-2-2-2----------|
|-2--2--2-2-2-4--4-4--4-4-4-6--6--6-6--6-2--2-2--2-2-2-2----------|
|-------------2--2-2--2-2-2-4--4--4-4--4-0--0-0--0-0-0-0----------|

|-----------------------------------------------------------------|
|-----------------------------------------------------------------|
|-4--4--4-4-4-----------------------------------------------------|
|-4--4--4-4-4-4--4-4--4-4-4-4-6-2-2-2222-22-2222------------------|
|-2--2--2-2-2-4--4-4--4-4-4-4-6-2-2-2222-22-2222------------------|
|-------------2--2-2--2-2-2-2-4-0-0-0000-00-0000------------------|

Verse 1
Guitar 1
|-----------------------------------------------------------------|
|-----------------------------------------------------------------|
|-----4-------4-----------------------4-------4-------6-------6---|
|-4-4---4-4-4---------4-------4-4-4-4---4-4-4---6-6-6---6-6-6---6-|x4
|-2-2---2-2-2---4-4-4---4-4-4---2-2-2---2-2-2---4-4-4---4-4-4---4-|
|---------------2-2-2---2-2-2-------------------------------------|
  * *   * * *   * * *   * * *   * * *   * * *   * * *   * * *   * 
4th time, kill the last mute

Pre-Chorus
Guitar 1 & 2
|-----------------------------------------------------------------|
|-----------------------------------------------------------------|
|-----------------------------------------------------------------|
|-2----------------4----------------2-----------------4-----------|
|-2----------------4----------------2-----------------4-----------|
|-0----------------2----------------0-----------------2-----------|

Chorus
Guitar 2
|-----------------------------------------------------------------|
|-----------------------------------------------------------------|
|-4--4--4-4-4-----------------------------------------------------|
|-4--4--4-4-4-4--4-4--4-4-4-6--6--6-6--6-2--2-2--2-2-2------------|
|-2--2--2-2-2-4--4-4--4-4-4-6--6--6-6--6-2--2-2--2-2-2------------|
|-------------2--2-2--2-2-2-4--4--4-4--4-0--0-0--0-0-0------------|
                          			        	   x2
|-----------------------------------------------------------------|
|-----------------------------------------------------------------|
|-4--4--4-4-4-----------------------------------------------------|
|-4--4--4-4-4-4--4-4--4-4-4-4-6-2-2-2222-22-2222------------------|
|-2--2--2-2-2-4--4-4--4-4-4-4-6-2-2-2222-22-2222------------------|
|-------------2--2-2--2-2-2-2-4-0-0-0000-00-0000------------------|

Guitar 1
|-----------------------------------------------------------------|
|-----------------------------------------------------------------|
|-16-16-16161616-1616-161616-16-16-16161616-1616-161616-----------|
|--x--x--x-x-x-x--x-x--x-x-x--x--x--x-x-x-x--x-x--x-x-x-----------|
|-14-14-14141414-1414-141414-14-14-14141414-1414-141414-----------|
|-----------------------------------------------------------------|
								   x2
|-----------------------------------------------------------------|
|-----------------------------------------------------------------|
|-16-16-161616-15-1515-151515-16-16-16161616-1616-16161616--------|
|--x--x--x-x-x--x--x-x--x-x-x--x--x--x-x--x---x-x--x-x-x-x--------|
|-14-14-141414-13-1313-131313-14-14-14-14-14-1414-14141414--------|
|-----------------------------------------------------------------|
 The part where it goes down to 13x15 is at the 244 at the guitar 
      2 part, then back up at 022

Post Chorus
Guitar 1
|-----------------------------------------------------------------|
|-7b(9)-7-r7-9-9b(11)-9-r9-11-11b(12)-11-r11-12-12b(14)~----------|
|-----------------------------------------------------------------|
|-----------------------------------------------------------------|
|-----------------------------------------------------------------|
|-----------------------------------------------------------------|

Guitar 2
|-----------------------------------------------------------------|
|-----------------------------------------------------------------|
|-----------------------------------------------------------------|
|-6-6-6-6-6-4-4-4-4-4-2-2-2-2-2-4-4-4-4-4-4-----------------------|
|-6-6-6-6-6-4-4-4-4-4-2-2-2-2-2-4-4-4-4-4-4-----------------------|
|-4-4-4-4-4-2-2-2-2-2-0-0-0-0-0-2-2-2-2-2-2-----------------------|

Verse 2
Guitar 1
|-----------------------------------------------------------------|
|-----------------------------------------------------------------|
|-13131313131313111111111111111116161616161616161818181818181818--|
|--x-x-x-x-x-x-x-x-x-x-x-x-x-x-x-x-x-x-x-x-x-x-x-x-x-x-x-x-x-x-x--|x2
|-11111111111111-9-9-9-9-9-9-9-914141414141414141616161616161616--|
|-----------------------------------------------------------------|
   * *   * * *   * * *   * * *   * * *   * * *   * * *   * * *

Pre-Chorus
Guitar 1 & 2
|-----------------------------------------------------------------|
|-----------------------------------------------------------------|
|-----------------------------------------------------------------|
|-2----------------4----------------2-----------------4-----------|
|-2----------------4----------------2-----------------4-----------|
|-0----------------2----------------0-----------------2-----------|

Chorus
Guitar 2
|-----------------------------------------------------------------|
|-----------------------------------------------------------------|
|-4--4--4-4-4-----------------------------------------------------|
|-4--4--4-4-4-4--4-4--4-4-4-6--6--6-6--6-2--2-2--2-2-2------------|
|-2--2--2-2-2-4--4-4--4-4-4-6--6--6-6--6-2--2-2--2-2-2------------|
|-------------2--2-2--2-2-2-4--4--4-4--4-0--0-0--0-0-0------------|
                          			        	   x2
|-----------------------------------------------------------------|
|-----------------------------------------------------------------|
|-4--4--4-4-4-----------------------------------------------------|
|-4--4--4-4-4-4--4-4--4-4-4-4-6-2-2-2222-22-2222------------------|
|-2--2--2-2-2-4--4-4--4-4-4-4-6-2-2-2222-22-2222------------------|
|-------------2--2-2--2-2-2-2-4-0-0-0000-00-0000------------------|

Guitar 1
|-----------------------------------------------------------------|
|-----------------------------------------------------------------|
|-16-16-16161616-1616-161616-16-16-16161616-1616-161616-----------|
|--x--x--x-x-x-x--x-x--x-x-x--x--x--x-x-x-x--x-x--x-x-x-----------|
|-14-14-14141414-1414-141414-14-14-14141414-1414-141414-----------|
|-----------------------------------------------------------------|
								   x2
|-----------------------------------------------------------------|
|-----------------------------------------------------------------|
|-16-16-161616-15-1515-151515-16-16-16161616-1616-16161616--------|
|--x--x--x-x-x--x--x-x--x-x-x--x--x--x-x--x---x-x--x-x-x-x--------|
|-14-14-141414-13-1313-131313-14-14-14-14-14-1414-14141414--------|
|-----------------------------------------------------------------|

Bridge
Guitar 1
|---------------------------------------------------------|
|-----7-5-4-2---------------------------------------------|
|---------------------------------------------------------|
|---------------------------------------------------------|
|-------------4-6-7-6----2-2-2-2-2-2-2-2-2-2-2-2-2-2-2-2--|
|------------------------0-0-0-0-0-0-0-0-0-0-0-0-0-0-0-0--|
                         * * * * * * * * * * * * * * * *

Guitar 2
|---------------------------------------------------------|
|---------------------------------------------------------|
|-6--------6----------------------------------------------|
|-6---4----6----------------------------------------------|
|-4---4----4-------------2-2-2-2-2-2-2-2-2-2-2-2-2-2-2-2--|
|-----2------------------0-0-0-0-0-0-0-0-0-0-0-0-0-0-0-0--|
                         * * * * * * * * * * * * * * * *

Solo

Guitar 1
|---------------------------------------------|
|-4-4-4-2-0-2~-9-9-9-7-4-5~-16-16-16-14-12-14~|
|---------------------------------------------|
|---------------------------------------------|
|---------------------------------------------|
|---------------------------------------------|

|---------------------------------------------|
|-----17----17----1617----17--1716------------|
|-1616--1616--1616----1616--16----16~---------|
|---------------------------------------------|
|---------------------------------------------|
|---------------------------------------------|

Guitar 2
|-----------------------------------------------------------------|
|-----------------------------------------------------------------|
|-4--4--4-4-4-----------------------------------------------------|
|-4--4--4-4-4-4--4-4--4-4-4-6--6--6-6--6-2--2-2--2-2-2------------|
|-2--2--2-2-2-4--4-4--4-4-4-6--6--6-6--6-2--2-2--2-2-2------------|
|-------------2--2-2--2-2-2-4--4--4-4--4-0--0-0--0-0-0------------|
                          			        	   x2
|-----------------------------------------------------------------|
|-----------------------------------------------------------------|
|-4--4--4-4-4-----------------------------------------------------|
|-4--4--4-4-4-4--4-4--4-4-4-4-6-2-2-2222-22-2222------------------|
|-2--2--2-2-2-4--4-4--4-4-4-4-6-2-2-2222-22-2222------------------|
|-------------2--2-2--2-2-2-2-4-0-0-0000-00-0000------------------|

Guitar 2
|-----------------------------------------------------------------|
|-----------------------------------------------------------------|
|-444444444444444444444444444444444444444444444444----------------|
|-----------------------^^^ that's 48 times ^^^-------------------|
|-----------------------------------------------------------------|
|-----------------------------------------------------------------|
                        
Guitar 1 & 2 (Or just 1)
|-----------------------------------------------------------------|
|-----------------------------------------------------------------|
|-----------------------------------------------------------------|
|-----------------------------------------------------------------|
|------------------------------------------------2--4--6--8--9-11-|
|------------------------------------------------0--2--4--6--7--9-|


Chorus
Guitar 1
|-----------------------------------------------------------------|
|-14b16~12b14~14b16~10b12~14b16~12b14-----------------------------|
|------------------------------------16-16-16161616-1616-16161616-|
|-------------------------------------x--x--x-x-x-x--x-x--x-x-x-x-|x2
|------------------------------------14-14-14141414-1414-14141414-|
|-----------------------------------------------------------------|
Figure out the timing for these 
On the second time, repeat the last 12 chords

Guitar 2
|-----------------------------------------------------------------|
|-----------------------------------------------------------------|
|-4--4--4-4-4-----------------------------------------------------|
|-4--4--4-4-4-4--4-4--4-4-4-6--6--6-6--6-2--2-2--2-2-2------------|
|-2--2--2-2-2-4--4-4--4-4-4-6--6--6-6--6-2--2-2--2-2-2------------|
|-------------2--2-2--2-2-2-4--4--4-4--4-0--0-0--0-0-0------------|
                          			        	   x2
|-----------------------------------------------------------------|
|-----------------------------------------------------------------|
|-4--4--4-4-4-----------------------------------------------------|
|-4--4--4-4-4-4--4-4--4-4-4-4-6-2-2-2222-22-2222------------------|
|-2--2--2-2-2-4--4-4--4-4-4-4-6-2-2-2222-22-2222------------------|
|-------------2--2-2--2-2-2-2-4-0-0-0000-00-0000------------------|
On the second time, repeat the last 12 power chords



Outro
Guitar 1
|-----------------------------------------------------------------|
|-0-7-7-5--4--5--4-5-7-0-7-7-5--4--5--4-5-4-----------------------|
|-----------------------------------------------------------------|
|-----------------------------------------------------------------|
|-----------------------------------------------------------------|
|-----------------------------------------------------------------|

|-----------------------------------------------------------------|
|-0-7-7-5--4--5-4-5-7-0-5-5-4--5--4-5--4-5-4-0--------------------|
|-----------------------------------------------------------------|
|-----------------------------------------------------------------|
|-----------------------------------------------------------------|
|-----------------------------------------------------------------|

|-----------------------------------------------------------------|
|-0-5-5-4--5--4-5--4-5-7-0-5-5-4--5--4-5--4-5-4-0-----------------|
|-----------------------------------------------------------------|
|-----------------------------------------------------------------|
|-----------------------------------------------------------------|
|-----------------------------------------------------------------|

Guitar 2
|-----------------------------------------------------------------|
|-----------------------------------------------------------------|
|-4--4--4-4-4-----------------------------------------------------|
|-4--4--4-4-4-4--4-4--4-4-4-6--6--6-6--6-2--2-2--2-2-2------------|
|-2--2--2-2-2-4--4-4--4-4-4-6--6--6-6--6-2--2-2--2-2-2------------|
|-------------2--2-2--2-2-2-4--4--4-4--4-0--0-0--0-0-0------------|
                          			        	   x2
|-----------------------------------------------------------------|
|-----------------------------------------------------------------|
|-4--4--4-4-4-----------------------------------------------------|
|-4--4--4-4-4-4--4-4--4-4-4-4-6-2-2-2222-22-2222------------------|
|-2--2--2-2-2-4--4-4--4-4-4-4-6-2-2-2222-22-2222------------------|
|-------------2--2-2--2-2-2-2-4-0-0-0000-00-0000------------------|
Repeat the last 12 power chords the second time through


Pretty sure that's 100% (except for maybe some timing or strum amounts
but you can figure that out on your own easy enough). Enjoy!
            
Submit corrections


        Activate lessons Hard to play? Try these video lessons and learn fast Activate lessons
        
↑ Back to top | Tablatures and chords for acoustic guitar and electric guitar, ukulele, drums are parodies/interpretations of the original songs. You may use it for private study, scholarship, research or language learning purposes only