Home » S » Steel Panther »

Steel Panther - Just Like Tiger Woods Tabs

Artists:  A B C D E F G H I J K L M N O P Q R S T U V W X Y Z # 

Just Like Tiger Woods Tabs

(ver. 2) Click to play this song!
Steel Panther
 Rating:
4.2/5 (5 votes)
                
Marillion - Just Like Tiger Woods
=================================


Tab Explanation
===============

/or\    Slide
h       Hammer-on
p       Pull-off
T       Tap
B       Bend the note to the fret after the B
R       Release back to the originally bent note
A.H.    Artificial Harmonic
m       Palm Muted
//      Trem Pick (Pick as fast as possible)

==============================
All guitars tuned 1/2 step down (Eb Ab Db Gb Bb Eb)

Gtr. 3 is harmonized by an additional guitar which I haven't included

Gtr. 1 fades in on B5

Intro
=====
e|-------------------|
B|-------------------|
G|-4~-2----4-2~-4----| x2
D|-4~-2-2~-4-2~-4-2~-|
A|-2~-0-2~-2-0~-2-2~-|
E|------0~--------0~-|

  Gtr. 2 (all notes palm muted)
e|----------------------------------|
B|----------------------------------|
G|-9-8---9-8---9-8---9-8---11-8---8-| x8
D|-----9-----9-----9-----9------9---|
A|----------------------------------|
E|----------------------------------|

  Gtr. 3 (On second repeat of guitar 1)
e|----14~-12-11-12-11----------------------------------|
B|-12-----------------12~------------------------------|
G|------------------------8-8-9/11-9-8-/6-/4-----------|
D|-------------------------------------------4-4/6-4~--|
A|-----------------------------------------------------|
E|-----------------------------------------------------|

Verse
=====
Gtr. 1
e|-----------------------------|------------------------|
B|-----------------------------|-----4---4--------------|
G|-----4---4-----4-----3---3-1-|-----4---4-----6--6-6p4-| x 3
D|-2-2-2-2-2-2-2-2-2-2-2-2-2-2-|-6-6---6---6-6-4--4-4---|
A|-----------------------------|------------------------|
E|-----------------------------|------------------------|

e|------------------------------------------------|
B|------------------------------------------------|
G|-----4---4-----3-----3---3h4-6~-----------------|
D|-4-4-4-4-4-4-4-4-4-4-4-4-4---6~--/6-4---4-------|
A|-----------------------------4~-------6---6-4-6-|
E|-----------------------------4~-----------------|

Chorus
======
Gtr. 1
e|----------------------------------|----------------------|
B|----------------------------------|----------------------|
G|-4~-2----4-2~-4-------------------|-4~-2----4-2~-4----4~-|
D|-4~-2-2~-4-2~-4-2~-/6-4---4-------|-4~-2-2~-4-2~-4-2~-4~-|
A|-2~-0-2~-2-0~-2-2~------6---6-4-6-|-2~-0-2~-2-0~-2-2~-2~-|
E|------0~--------0~----------------|------0~--------0~----|
  Gtr. 2
e|----------------------------------|
B|----------------------------------|
G|-9-8---9-8---9-8---9-8---11-8---8-|
D|-----9-----9-----9-----9------9---|
A|----------------------------------|
E|----------------------------------|

Remember this when you're having fun...
Gtr. 3
e|-14/16-14~-16-----------------|
B|-14/16-14~----16p14\12-14-----|
G|--------------------------13~-|
D|------------------------------|
A|------------------------------|
E|------------------------------|

If the word gets out don't be afraid
e|-------------------------------------------|
B|-2/4~--------------------------------------|
G|------4p3h4---3----------------------------|
D|------------6---4h6-6---4~--/6-4---4-------|
A|----------------------6----------6---6-4-6-|
E|-------------------------------------------|

Chorus (as before)

Interlude (no guitar)


Surprise them all with an invitation...
Gtr. 1
e|----------------------------------------------|
B|----------------------------------------------|
G|-4-4-4-4-------4--3-3h4-----4-4-----6--6-6p4~-| x2
D|-2-2-2-2-2-2-2-4--4-4-------6-6-----4--4-4~---|
A|----------------------------------------------|
E|------------------------4-4-----4-4-----------|

Solo (with Gtr. 1 repeating previous figure)
====

Gtr. 3
e|---------------------------------4-6-7--11~-12-9~-9-11p9-------9-11------|
B|-----------------4-4h5p4---4-5-7-------------------------11-12------11-9-|
G|-4-3h4p3---3-4-6---------6-----------------------------------------------|
D|---------6---------------------------------------------------------------|
A|-------------------------------------------------------------------------|
E|-------------------------------------------------------------------------|

e|-------11----11/14-16-18-18b19~-18p16-19-18~-18p16\14-16-16b18~-16b18-16~|
B|-------------------------------------------------------------------------|
G|-11/13----13-------------------------------------------------------------|
D|-------------------------------------------------------------------------|
A|-------------------------------------------------------------------------|
E|-------------------------------------------------------------------------|

e|-19-16-14--------------------------------------------------|
B|----------16-15-14-----------------------------------------|
G|-------------------16-13-----------------------------------|
D|-------------------------16-13-----------------------------|
A|-------------------------------16-14-16b18r16-16b18r16-14~-|
E|-----------------------------------------------------------|

Chorus only Gtr. 1)
======

Outro
=====
Chorus with Gtr. 3 intro figure
            
Submit corrections

↑ Back to top | Tablatures and chords for acoustic guitar and electric guitar, ukulele, drums are parodies/interpretations of the original songs. You may use it for private study, scholarship, research or language learning purposes only