Home » S » Steel Panther »

Steel Panther - Critter Tabs

Artists:  A B C D E F G H I J K L M N O P Q R S T U V W X Y Z # 

Critter Tabs

(ver. 1) Click to play this song!
Steel Panther
 Rating:
4/5 (4 votes)
                Intro
      . .   . .    . .   . .   .
d#|---------------------------------|
A#|-6-----6-----7------7-----7------|
F#|-5-----5-----7------7-----7------|
C#|-3-----3-----4------4-----4------|
G#|---0-0---0-0----0-0---0-0---0-3b-|
D#|---------------------------------|

======

Pre-verse 1

gtr 1

d#|--------------------------------------------------------------|
A#|--------------------------------------------------------------|
F#|-----------------------------------------------------5*-5*-5*-|
C#|--------5------5-7~------5---------------5------5-7~-5*-5*-5*-|
G#|-0--6-7---6-7-------6-7----6-5-------6-7---6-7-------3*-3*-3*-|
D#|-------------------------------8-5~---------------------------|

gtr 2

d#|--------------------------------------------------------------|
A#|--------------------------------------------------------------|
F#|--------------------------------------------------------------|
C#|--------------------------------------------------------------|
G#|--------------------------------------------------------------|
D#|--------------------------------------------------------------|

=

gtr 1

d#|-------------------------------------------------------------|
A#|-------------------------------------------------------------|
F#|-----------------------------------------------------5*-5*---|
C#|--------5------5-7~------5---------------5------5-7~-5*-5*-5-|
G#|-0--6-7---6-7-------6-7----6-5-------6-7---6-7-------3*-3*-5-|
D#|-------------------------------8-5~------------------------3-|

gtr 2

d#|-22br-20~-20br--17------------17-------------------------------------------| 
A#|------------------------20b--------20-17----20-17----17-----------17-------|
F#|-----------------------------------------20-------20----20-19-17~-17----19~|
C#|---------------------------------------------------------------------17----|
G#|---------------------------------------------------------------------------|
D#|---------------------------------------------------------------------------|

======

Verse 1 ("If you love your lady...")

                        x3
d#|---------------------|
A#|-3--6--8--6-6-5--5/3-|
F#|-2--3--5--5-5-5--5/3-|
C#|-0--------7-7-5--5/3-|
G#|---------------------|
D#|---------------------|

=

       . . . . . .      . . . . . .
d#|---------------------------------------------------------------|
A#|---------------------------------------------------------------|
F#|-3----------------5--------------------------7-----------------|
C#|-3----------------5------------------------7---7---6*-6*-6*-6*-|
G#|-1--1-1-1-1-1-1---3--3-3-3-3-3-3---5~--7-8-------7-7*-7*-7*-7*-|
D#|---------------------------------------------------0*-0*-0*-0*-|

======

Chorus 1 ("Hit her in the sh*tter...")
      .
d#|---------------------------------------------------|
A#|-------------6-6-6--6-6--------------3-------------|
F#|-2---2--2-2--5-5-4--4-5--5--5--5--5--0-------------|
C#|-2---2--2-2--3-3-3--3-3--5--5--5--5--0-----2-------|
G#|-0-0-0--0-0--------------3--3--3--3----2-3---3-2---|
D#|-------------------------------------------------3-|

=

      .
d#|-----------------------------------------------------------|
A#|-------------6-6-6--6-6------------------------------------|
F#|-2---2--2-2--5-5-4--4-5--5--5--5--5--9-9---9-9---9-9---9-9-|
C#|-2---2--2-2--3-3-3--3-3--5--5--5--5--9-9---9-9---9-9---9-9-|
G#|-0-0-0--0-0--------------3--3--3--3--7-7---7-7---7-7---7-7-|
D#|-----------------------------------------0-----0-----0-----|

======

Pre-Verse 2

gtr 1

d#|----------------------------------------------------------------|
A#|----------------------------------------------------------------|
F#|-----------------------------------------------------5*-5*-5*---|
C#|--------5------5-7~------5---------------5------5-7~-5*-5*-5*-5-|
G#|-0--6-7---6-7-------6-7----6-5-------6-7---6-7-------3*-3*-3*-5-|
D#|-------------------------------8-5~---------------------------3-|

gtr 2

d#|--------------------------------------------------------------------|
A#|----------------------------------------------------------------[5]-|
F#|---------------------------------------------------[12]-----[5]-----|
C#|--------------------------------------------------------[5]---------|
G#|--------------------------------------------------------------------|
D#|--------------------------------------------------------------------|

======

Verse 2 ("If you're at the strip joint...")

gtr 1

d#|---------------------|
A#|-3--6--8--6-6-5--5/3-|
F#|-2--3--5--5-5-5--5/3-|
C#|-0--------7-7-5--5/3-|
G#|---------------------|
D#|---------------------|

gtr 2

d#|---------------------|
A#|---------------------|
F#|---------------------|
C#|---------------------|
G#|---------------------|
D#|---------------------|

=

gtr 1

d#|---------------------|
A#|-3--6--8--6-6-5--5/3-|
F#|-2--3--5--5-5-5--5/3-|
C#|-0--------7-7-5--5/3-|
G#|---------------------|
D#|---------------------|

gtr 2

d#|-----------------20~-20b~-20b~----|
A#|-----------18h20---------------20~|
F#|----------------------------------|
C#|----------------------------------|
G#|----------------------------------|
D#|----------------------------------|

=

gtr 1
d#|---------------------|
A#|-3--6--8--6-6-5--5/3-|
F#|-2--3--5--5-5-5--5/3-|
C#|-0--------7-7-5--5/3-|
G#|---------------------|
D#|---------------------|

gtr 2

d#|---------------------|
A#|---------------------|
F#|---------------------|
C#|---------------------|
G#|---------------------|
D#|---------------------|

=

       . . . . . .      . . . . . .
d#|---------------------------------------------------------------|
A#|---------------------------------------------------------------|
F#|-3----------------5--------------------------7-----------------|
C#|-3----------------5------------------------7---7---6*-6*-6*-6*-|
G#|-1--1-1-1-1-1-1---3--3-3-3-3-3-3---5~--7-8-------7-7*-7*-7*-7*-|
D#|---------------------------------------------------0*-0*-0*-0*-|

======

Chorus 2 ("Hit her in the sh*tter...")
      .
d#|---------------------------------------------------|
A#|-------------6-6-6--6-6--------------3-------------|
F#|-2---2--2-2--5-5-4--4-5--5--5--5--5--0-------------|
C#|-2---2--2-2--3-3-3--3-3--5--5--5--5--0-----2-------|
G#|-0-0-0--0-0--------------3--3--3--3----2-3---3-2---|
D#|-------------------------------------------------3-|

=

      .                                 . .   . .
d#|-----------------------------------------------|
A#|-------------6-6-6--6-6------------------------|
F#|-2---2--2-2--5-5-4--4-5--5--5--5--5--9-9*--9-9*|
C#|-2---2--2-2--3-3-3--3-3--5--5--5--5--9-9*--9-9*|
G#|-0-0-0--0-0--------------3--3--3--3--7-7*--7-7*|
D#|-----------------------------------------------|

=

      .
d#|---------------------------------------------------|
A#|-------------6-6-6--6-6--------------3-------------|
F#|-2---2--2-2--5-5-4--4-5--5--5--5--5--0-------------|
C#|-2---2--2-2--3-3-3--3-3--5--5--5--5--0-----2-------|
G#|-0-0-0--0-0--------------3--3--3--3----2-3---3-2---|
D#|-------------------------------------------------3-|

=

      .
d#|-----------------------------------------------------------------|
A#|-------------6-6-6--6-6------------------------------------------|
F#|-2---2--2-2--5-5-4--4-5--5--5--5--5--9-9---9-9---9-9---9-9-------|
C#|-2---2--2-2--3-3-3--3-3--5--5--5--5--9-9---9-9---9-9---9-9-------|
G#|-0-0-0--0-0--------------3--3--3--3--7-7---7-7---7-7---7-7-------|
D#|-----------------------------------------0-----0-----0-----5-4-2-|

======

Solo

gtr 1 (rhythm)

d#|------------------------------------------------------|
A#|------------------------------------------------------|
F#|-------------7-7-7-7-7----9-9-9-9-9-------------------|
C#|-4-4-4-4-----7-7-7-7-7----9-9-9-9-9---7-7-7-7-7-7-7-7-|
G#|-4-4-4-4-----5-5-5-5-5----7-7-7-7-7---4-4-4-4-4-4-4-4-|
D#|-2-2-2-2----------------------------------------------|

gtr 2

d#|---------------------------------------------------------------------|
A#|-------------------------------------------------15br-14-------------|
F#|-13br-11----11~--13br-11----11~--14br-13----13~----------16-14-13----|
C#|---------14--------------14--------------16-----------------------16-|
G#|---------------------------------------------------------------------|
D#|---------------------------------------------------------------------|

=

gtr 1
                                    .      .      .
d#|----------------------------------------------------------|
A#|----------------------------------------------------------|
F#|-7-7-7-7-7----4-4-4-4-4-----------------------------------|
C#|-7-7-7-7-7----4-4-4-4-4------6-6----6-6----6-6------------|
G#|-5-5-5-5-5----2-2-2-2-2------4-4-4--4-4-4--4-4-4----------|
D#|----------------------------------------------------5-4-2-|

gtr 2

d#|-----------------16b-14----14~----------------------------------|
A#|-17br-15----15~---------17------18~-15--------------------------|
F#|---------18----------------------------16-----------------------|
C#|------------------------------------------18~-15----------------|
G#|-------------------------------------------------17-14~---------|
D#|--------------------------------------------------------16-13-9~|

=

gtr 1

d#|----------------------------------------------------------------|
A#|----------------------------------------------------------------|
F#|-------------7-7-7-7-7----9-9-9-9-9-------------------7-7-7-7-7-|
C#|-4-4-4-4-----7-7-7-7-7----9-9-9-9-9---7-7-7-7-7-7-7-7-7-7-7-7-7-|
G#|-4-4-4-4-----5-5-5-5-5----7-7-7-7-7---4-4-4-4-4-4-4-4-5-5-5-5-5-|
D#|-2-2-2-2--------------------------------------------------------|

gtr 2
gradual release
d#|-19b--19brp17-19~-17h19p17\14\12h14/17-12~----------------------|
A#|-------------------------------------------14p12\10-12-12/14-10~|
F#|----------------------------------------------------------------|
C#|----------------------------------------------------------------|
G#|----------------------------------------------------------------|
D#|----------------------------------------------------------------|

=

gtr 1

d#|-----------|
A#|-----------|
F#|-4-4-4-4-4-|
C#|-4-4-4-4-4-|
G#|-2-2-2-2-2-|
D#|-----------|

gtr 2
              sweep    ^ sweep     ^
d#|-----------------------------10-14/16br-|
A#|-9b--------------10-13-----12-----------|
F#|----11---------11-----11h13-------------|
C#|-------11--9h12-------------------------|
G#|----------------------------------------|
D#|----------------------------------------|

=

gtr 1
        .      .      .      .
d#|-------------------------------------|
A#|-------------------------------------|
F#|-6-6----6-6----6-6----6-6----6-6-6-6-|
C#|-6-6----6-6----6-6----6-6----6-6-6-6-|
G#|-4-4-4--4-4-4--4-4-4--4-4-4--4-4-4-4-|
D#|-------------------------------------|

gtr 2

d#|-------------------------------------------------|
A#|-14~--15-17-15~--18-19-18~--19-21-21br-19-18-19~-|
F#|-------------------------------------------------|
C#|-------------------------------------------------|
G#|-------------------------------------------------|
D#|-------------------------------------------------|

======

Post solo ("Don't be retarded...")

d#|------------------------------------------------|
A#|------------------------------------------------|
F#|-7--9--------------7--9--10--11--7--7--9------9-|
C#|-7--9--7--6--4--2--7--9--9---11--7--7--9------9-|
G#|-5--7--7--6--4--2--5--7--8---9---5--5--7------7-|
D#|-------5--4--2--0-------------------------3-0---|

=
                      x3
d#|-------------------|
A#|-----------3-3-3-3-|
F#|-2-2-2-----2-2-2-2-|
C#|-2-2-2-----0-0-0-0-|
G#|-0-0-0-------------|
D#|-------3p0---------|

=

d#|---------------------------------|
A#|---------------------------------|
F#|-2-2-2-----9-9---9-9---9-9---9-9-|
C#|-2-2-2-----9-9---9-9---9-9---9-9-|
G#|-0-0-0-----7-7---7-7---7-7---7-7-|
D#|-------3p0-----0-----0-----0-----|

======

Outro

gtr 1

d#|--------------------------------------------------------------|
A#|--------------------------------------------------------------|
F#|-----------------------------------------------------5*-5*-5*-|
C#|--------5------5-7~------5---------------5------5-7~-5*-5*-5*-|
G#|-0--6-7---6-7-------6-7----6-5-------6-7---6-7-------3*-3*-3*-|
D#|-------------------------------8-5~---------------------------|

gtr 2

d#|-------------------------------------------------------------------------------|
A#|-----------------------------------------------------15h16p15p13-15-13----/17~-|
F#|-----------------------------------------------------------------------14------|
C#|-------------------------------------------------------------------------------|
G#|-------------------------------------------------------------------------------|
D#|-------------------------------------------------------------------------------|

=

gtr 1

d#|----------------------------------------------------------------|
A#|----------------------------------------------------------------|
F#|-----------------------------------------------------5*-5*-5*---|
C#|--------5------5-7~------5---------------5------5-7~-5*-5*-5*-5-|
G#|-0--6-7---6-7-------6-7----6-5-------6-7---6-7-------3*-3*-3*-5-|
D#|-------------------------------8-5~---------------------------3-|

gtr 2

d#|----------------15-17--------15----------------------------------------------|
A#|----------16-17--------16-17----16-15-13-------------------------------------|
F#|-----------------------------------------14~--14-12-----12-------------------|
C#|----------------------------------------------------14------14-13-------{10}~|
G#|-------------------------------------------------------------------10--------|
D#|-----------------------------------------------------------------------------|

=

gtr 1

d#|---------------------------------------------------------------------------------------------------|
A#|---------------------------------------------------------------------------------------------------|
F#|---------------2*-2*-2*-2------------------------------------------------------------------------2-|
C#|--------5------2*-2*-2*-2------------------------------------------------------------------------2-|
G#|-0--6-7---6-7--0*-0*-0*-0------------------------------------------------------------------------0-|
D#|---------------------------------------------------------------------------------------------------|

gtr 2
                                                                                              \/
d#|---------------17-*-17-*-17-*--17------------------------------------------------------------------|
A#|---------------20b*-20b*-20b*--20brb-17h20p17----17------------------------------------------------|
F#|----------------------------------------------19----19p17----17------------------------------------|
C#|----------------------------------------------------------19----19p17----17------------------------|
G#|----------------------------------------------------------------------19----19p17----17------------|
D#|----------------------------------------------------------------------------------19----19p17------|            
Submit corrections

↑ Back to top | Tablatures and chords for acoustic guitar and electric guitar, ukulele, drums are parodies/interpretations of the original songs. You may use it for private study, scholarship, research or language learning purposes only