Home » S » Steel Panther »

Steel Panther - Hells On Fire Tabs

Artists:  A B C D E F G H I J K L M N O P Q R S T U V W X Y Z # 

Hells On Fire Tabs

(ver. 2) Click to play this song!
Steel Panther
 Rating:
4/5 (4 votes)
                -------------------------------------------------------------------------------------------------
                                  Hell's On Fire - Steel Panther
-------------------------------------------------------------------------------------------------

Tuning: D#G#C#F#A#D

This song is really, really, really, really hot! Learn it, b**ches!
I didn't tab out the solo, because you can't play it anyway.


/  = slide
lr = let ring
pm = palm muting



Introduction:


Eb----------------------------------------------------|
Bb----------------------------------------------------|
Gb----------------------------------------------------|
Db-------------------------------2--4-----------------|
Ab-------4--4--4--4--4--4--4--4--0--2-----------------|
Eb-12/2--0--2--0--2--0--2--0--2-----------------------|
  
Eb----------------------------------------------------|
Bb----------------------------------------------------|
Gb----------------------------------------------------|
Db---------------------------5--2---------------------|
Ab---4--4--4--4--4--4--4--4--3--0---------------------|
Eb---0--2--0--2--0--2--0--2---------------------------|

Eb----------------------------------------------------|
Bb----------------------------------------------------|
Gb----------------------------------------------------|
Db--------------------------2--4--7lr-------------4--3|
Ab--4--4--4--4--4--4--4--4--0--2--5lr-------------2--1|
Eb--0--2--0--2--0--2--0--2----------------------------|


Verse:
(Let ring all the power-chords)


Eb----------------------------------------------------|
Bb----------------------------------------------------|
Gb----------------------------------------------------|
Db--4----2----3----2----4----2----3----2--------------|
Ab--2----0----1----0----2----0----1----0--------------|
Eb--0----0----0----0----0----0----0----0--------------|

Eb----------------------------------------------------|
Bb----------------------------------------------------|
Gb----------------------------------------------------|
Db--4----5----7----8----4----2----3----2-----5pm-(x16)|
Ab--2----3----5----6----2----0----1----0-----3pm-(x16)|
Eb--0----0----0----0----0----0----0----0-----0pm-(x16)|


Chorus:


Eb----------------------------------------------------|
Bb----------------------------------------------------|
Gb----------------------------------------------------|
Db-------------------------------------2--4-----------|
Ab--2----5-----4--4--4--4--4--4--4--4--0--2-----------|
Eb--0----3-----0--2--0--2--0--2--0--2-----------------|

Eb----------------------------------------------------|
Bb----------------------------------------------------|
Gb----------------------------------------------------|
Db-------------------------------------5--2-----------|
Ab--2----5-----4--4--4--4--4--4--4--4--3--0-----------|
Eb--0----3-----0--2--0--2--0--2--0--2-----------------|

Eb----------------------------------------------------|
Bb----------------------------------------------------|
Gb----------------------------------------------------|
Db---------------------------2--4---------------------|
Ab---4--4--4--4--4--4--4--4--0--2---------------------|
Eb---0--2--0--2--0--2--0--2---------------------------|

Eb----------------------------------------------------|
Bb----------------------------------------------------|
Gb----------------------------------------------------|
Db--------------------------------7lr-------------4--3|
Ab---4--4--4--4--4--4--4--4-------5lr-------------2--1|
Eb---0--2--0--2--0--2--0--2---------------------------|


Bridge:
(starting at 1:35 min and goes until 2:12 min)


Eb----------------------------------------------------|
Bb----------------------------------------------------|
Gb----------------------------------------------------|
Db--5-5-5---5----7----8----7----5----7----8----2--4---|
Ab--3-3-3---3----5----6----5----3----5----6----0--2---|
Eb--0-0-0---0----0----0----0----0----0----0----0--0---|

Eb----------------------------------------------------|
Bb----------------------------------------------------|
Gb----------------------------------------------------|
Db--4----2----3----2----4----2----3----2--------------|
Ab--2----0----1----0----2----0----1----0--------------|
Eb--0----0----0----0----0----0----0----0--------------|

Eb----------------------------------------------------|
Bb----------------------------------------------------|
Gb----------------------------------------------------|
Db--4----4----4----5----4----2------------------------|
Ab--2----2----2----3----2----0------------------------|
Eb--0----0----0----0----0----0------------------------|
            
Submit corrections

↑ Back to top | Tablatures and chords for acoustic guitar and electric guitar, ukulele, drums are parodies/interpretations of the original songs. You may use it for private study, scholarship, research or language learning purposes only