» » »

Steel Dragon - We All Die Young Tabs

Artists:  A B C D E F G H I J K L M N O P Q R S T U V W X Y Z # 

We All Die Young Tabs

(ver. 1) Click to play this song!
Steel Dragon
 Rating:
3.6/5 (7 votes)

 We All Die Young lessons Tabs too difficult? Try these video lessons and learn fast
 
                
Tuning: Db Ab Db Gb Bb Eb

h= hammer on
/= slide
^ bend
|---------------------------------------------------------------------------|
|---------------------------------------------------------------------------|
|-12/14-14-14/16-12-12-12-12-9/12-12-12-12-12/11-11-11-11-------------------|
|-0-----0--0-----0--0--0--0--0----0--0--0--0-----0--0--0--------------------|
|---------------------------------------------------------------------------|
|---------------------------------------------------------------------------|

intro on bass then guitar does this with delay
|-------------------------------------------------------------|
|-------------------------------------------------------------|
|------------------------7-h-9-h-7----------------------------|
|--------------7-h-9------------------------------------------|
|---7-h-9-----------------------------------------------------|
|-------------------------------------------------------------|

      Chorus
|------|------------------------------------------|----------|
|------|------------------------------------------|----------|
|--3^--|------------------------------------------|----------|
|------|--5---4-----------------------------------|----------|
|------|--3---2------------------0----------0--0--|--0-0-----|
|------|---------------5^--------0----------0--0--|--0-0-----|
  PH                   PH


Verse 2
|---------------------------------------------------------------------------|
|---------------------------------------------------------------------------|
|-12/14-14-14-14/16-12-12-12-12-9-12-12-12-12-12-11-11-11-11----------------|
|--0-----0--0-----0--0--0--0--0----0--0--0--0-----0--0--0--0----------------|
|---------------------------------------------------------------------------|
|---------------------------------------------------------------------------|
              mess around with this solo
|---------------------------------------------------------------|
|-----------------------------------------10-----10----10-------|
|---------------7h9h7--7--9^--9^---------9------9-------7^------|
|--------7h9----------------------------------------------------|
|-7h9-----------------------------------------------------------|
|---------------------------------------------------------------|


|-------------------|-----------------------------------------------------------------------|
|-------------------|-10-9-7-----------------7-9---12-11-9--------10-9-7-------12-11-9------|
|----------------7h9|--------9-7---7-9-10-------------------11-9---------9-7----------11-9--|
|--------7h9--------|-----------------------------------------------------------------------|
|-7h9---------------|-----------------------------------------------------------------------|
|-------------------|-----------------------------------------------------------------------|

|---------------------------x3-|------------------------------------------------|
|-12-11-9---10-9-7-------------|-7/10--12^-12^-12^--7h10h12---------------------|
|------------------------------|------------------------------------------10^---|
|------------------------------|------------------------------------------------|
|------------------------------|------------------------------------------------|
|------------------------------|------------------------------------------------|

|--------------9-10-14-10-9----------------------9-10-14-10-9-------------------------9-10-14-10-9-|
|--9-10-14----------------------14-0-9-10-14----------------------14-10-9-10-14--------------------|
|--------------------------------------------------------------------------------------------------|
|--------------------------------------------------------------------------------------------------|
|--------------------------------------------------------------------------------------------------|
|--------------------------------------------------------------------------------------------------|

|-----------------------9-10-15-10-9--|----------------------------|
|-14-10-9-10-14-----------------------|--13^---17^--15^--14^--13^--|
|-------------------------------------|----------------------------|
|-------------------------------------|----------------------------|
|-------------------------------------|----------------------------|
|-------------------------------------|----------------------------|

|------------------------------|-----------------------------------------|
|------------------------------|-----------------------------------------|
|------------------------------|-----------------------------------------|
|-----------------------12--14^|------------------------14h12h14--15^----|
|------------11--15------------|---------------14h15^--------------------|
|-11--15-----------------------|-14h15-17--------------------------------|

|----------------------------------------------------------|
|-18-15-18-15-18-15-18-15----------------------------------|
|--------------------------------------17-15-17-15-17-15---|
|----------------------------------------------------------|
|----------------------------------------------------------|
|----------------------------------------------------------|
            
Submit corrections


        We All Die Young lessons Hard to play? Try these video lessons and learn fast We All Die Young lessons
        
↑ Back to top | Tablatures and chords for acoustic guitar and electric guitar, ukulele, drums are parodies/interpretations of the original songs. You may use it for private study, scholarship, research or language learning purposes only