Home » S » Steel Dragon »

Steel Dragon - We All Die Young Bass

Artists:  A B C D E F G H I J K L M N O P Q R S T U V W X Y Z # 

We All Die Young Bass

(ver. 2) Click to play this song!
Steel Dragon
 Rating:
4/5 (4 votes)
                Album:Rock Star Soundtrack
Bassist:Jeff Pilson

This is such a kickass tune by Steel Dragon. Their guitarist is awesome...cause 
he's Zakk Wylde, duh.

Key:
h = hammer on
> = slide up
< = slide down
x = times a number

Intro/Verse
G:11h13-13-13--13-13-13>15-15<11-11--11-11-11--10>11-11-11--11-11-11>13-13<10-10--10-10|
D:-------------------------------------------------------------------------------------|
A:-------------------------------------------------------------------------------------|
E:-------------------------------------------------------------------------------------|

"It makes my stomach..." part
G:---------------|---------------|---------------|----------|
D:---------------|---------------|---------------|----------|
A:2--1----4---4-4|2--1----4---4-4|2--1----4---4-4|2--1----4*|
E:-----2---------|-----2----------|-----2--------|----------|

Verse

"It makes my stomach..." part 2
G:---------------|---------------|---------------|----------|----------|
D:---------------|---------------|---------------|----------|----------|
A:2--1----4---4-4|2--1----4---4-4|2--1----4---4-4|2--1----4*|2--1----4*|
E:-----2---------|-----2---------|-----2---------|----------|----------|

1st part of solo is Intro x2

2nd part of solo
G:-------------------|-------------------|-------------------|
D:-------------------|-------------------|-------------------|
A:-----------4---4-4*|-----------4---4-4*|-----------4---4-4*|
E:0--2-3-2-0---------|0--2-3-2-0---------|0--2-3-2-0---------|

3rd part of solo
G:---------------|---------------|
D:---------------|---------------|
A:---------------|---------------|
E:0-0-0-0-0-0-0-0|2-2-2-2-2-3-2-0|

"We all die..."
G:----------|----------|----------|----------|
D:----------|----------|----------|----------|
A:2--1----4*|2--1----4*|2--1----4*|2--1----4*|
E:----------|----------|----------|----------|

Intro

End
G:---------|
D:---------|
A:9*-8-6-4*|
E:---------|

That's it. It should be in correct order if not close to correct order. This 
            
Submit corrections

↑ Back to top | Tablatures and chords for acoustic guitar and electric guitar, ukulele, drums are parodies/interpretations of the original songs. You may use it for private study, scholarship, research or language learning purposes only