Home » S » Steel Dragon »

Steel Dragon - Parting Time Tabs

Artists:  A B C D E F G H I J K L M N O P Q R S T U V W X Y Z # 

Parting Time Tabs

(ver. 2) Click to play this song!
Steel Dragon
here is the solo of the parting time. im not sure to this tab, you have to try, but i
there is something change that different to the song.
just try it!      enjoy!!!!!!

e|---/10~~~-----/10~~~--------------------------|--------------8-10|
B|-----------------------11p8---11p8h11--8p6h8--|---6-8-10-11------|
G|----------------------------------------------|-7----------------|
D|----------------------------------------------|------------------|
A|----------------------------------------------|------------------|
E|----------------------------------------------|------------------|
                                                 \_____p.m.________/

e|---10p8----8(p.m.)--8p6-------------------(3^4^3)----|
B|-----------------------------------------------------|
G|--------7~~~-------------5~~~--x--x--x---------------|
D|-----------------------------------------------------|
A|-----------------------------------------------------|
E|-----------------------------------------------------|

e|--------------------------------------------8b10-13p10--13p10---/15--18p15-|
B|-----------8p6----8--10p8-----10--11\10/11---------------------------------|
G|---3--0--------8-----------10----------------------------------------------|
D|---------------------------------------------------------------------------|
A|---------------------------------------------------------------------------|
E|---------------------------------------------------------------------------|

e|-15-13-11----15p11-----11b13--18--20--18~~~|
B|--------------------11---------------------|
G|-------------------------------------------|
D|-------------------------------------------|
A|-------------------------------------------|
E|-------------------------------------------|

ok guy!!! how it is?
so goodluck!!!
            
Submit corrections

↑ Back to top | Tablatures and chords for acoustic guitar and electric guitar, ukulele, drums are parodies/interpretations of the original songs. You may use it for private study, scholarship, research or language learning purposes only