» » »

Static - X - Wisconsin Death Trip Tabs

Artists:  A B C D E F G H I J K L M N O P Q R S T U V W X Y Z # 

Wisconsin Death Trip Tabs

(ver. 3) Click to play this song!
Static - X
 Rating:
4/5 (4 votes)

 Wisconsin Death Trip lessons Tabs too difficult? Try these video lessons and learn fast
 
                p= pull off
p.m= palm mute

Tuning: low to high (C, G, C, F, A, D)

Intro- p.m
D-----------------------------------------------------------------------------------A-----------------------------------------------------------------------------------
F-----------------------------------------------------------------------------------
C-----------------------------------------------------------------------------------
G-0-0----0-0-0-0-0-0-0-0-0-0-0-0-0-0-0-0-0-0-0-0-0-0-0-0-0--------------------------
C-0-0----0-0-0-0-0-0-0-0-0-0-0-0-0-0-0-0-0-0-0-0-0-0-0-0-0--------------------------

Verse-
D-----------------------------------------------------------------------------------
A-----------------------------------------------------------------------------------
F-----------------------------------------------------------------------------------
C-0-5-0-5-0-5-0-5-0---5-0-5-0-5-0----5-0-5-0-5-0------------------------------------
G-0-5-0-5-0-5-0-5-0---5-0-5-0-5-0----5-0-5-0-5-0------------------------------------
C-0-5-0-5-0-5-0-5-0---5-0-5-0-5-0----5-0-5-0-5-0------------------------------------

Chorus
D-----------------------------------------------------------------------------------
A-----------------------------------------------------------------------------------
F-----------------------------------------------------------------------------------
C-5p6-5p6-5p6-5p6-5p6-5p6-5p6-5p6-5p6-5p6-5p6-5p6-5p6-------------------------------
G-5p6-5p6-5p6-5p6-5p6-5p6-5p6-5p6-5p6-5p6-5p6-5p6-5p6-------------------------------
C-5p6-5p6-5p6-5p6-5p6-5p6-5p6-5p6-5p6-5p6-5p6-5p6-5p6-------------------------------

Bridge/Outro- p.m
D-----------------------------------------------------------------------------------
A-----------------------------------------------------------------------------------
F-----------------------------------------------------------------------------------
C-----------------------------------------------------------------------------------
G-0-0-0-0-0-0-0-0-0-0-0-0-0-0-0-0-0-0-0-0-0-0-0-0-0-0-0-0-0-------------------------
C-0-0-0-0-0-0-0-0-0-0-0-0-0-0-0-0-0-0-0-0-0-0-0-0-0-0-0-0-0-------------------------

D-10-10-10-10-10-10-10-10-10-10-10--------------------------------------------------
A-----------------------------------------------------------------------------------
F-----------------------------------------------------------------------------------
C-----------------------------------------------------------------------------------
G-----------------------------------------------------------------------------------
C-----------------------------------------------------------------------------------
            
Submit corrections


        Wisconsin Death Trip lessons Hard to play? Try these video lessons and learn fast Wisconsin Death Trip lessons
        
↑ Back to top | Tablatures and chords for acoustic guitar and electric guitar, ukulele, drums are parodies/interpretations of the original songs. You may use it for private study, scholarship, research or language learning purposes only