» » »

Static - X - Wisconsin Death Trip Tabs

Artists:  A B C D E F G H I J K L M N O P Q R S T U V W X Y Z # 

Wisconsin Death Trip Tabs

(ver. 1) Click to play this song!
Static - X
 Rating:
4/5 (4 votes)

 Wisconsin Death Trip lessons Tabs too difficult? Try these video lessons and learn fast
 
                this is how i play this damn great static-x song.any comments, corrections, suggestions
are welcome.i use the ZOOM 505-II effects processor and set it up so that my guitar 
sounds more or less like this great band.i use 2 zoom patches for this song.

the first patch, indicated by "dist.1" in the tab has these parameters:
COMP    :  C9
DIST    :  Mt
GAIN    :  30
EQ      :  30
CONT    :  0
ZNR     :  9
MOD     :  of
DEL/REV :  of
TIME    :  --

the second patch, indicated by "dist.2" in the tab has these parameters:
COMP    :  C9
DIST    :  Mt
GAIN    :  30
EQ      :  30
CONT    :  0
ZNR     :  9
MOD     :  C5 
DEL/REV :  H9
TIME    :  10

for my amp setting, i crank the bass and treble all the way up, and the mid at 5.


Tuning: C-G-C-F-A-D

Legend:
R   : rest 
PM  : palm muting 
HPM : heavy palm muting (mute the strings at approx. an inch from the bridge)


INTRO:
w/ dist.1
  HPM........................................|
|----------------------------------------------|
|----------------------------------------------|
|----------------------------------------------|
|--0--0----0--0-0--0--0--0----0--0-0--0--0--0--| (just do this until the next part!)
|--0--0----0--0-0--0--0--0----0--0-0--0--0--0--|
|--0--0----0--0-0--0--0--0----0--0-0--0--0--0--|


VERSES:
w/ dist.1

|-------------------------------------|
|-------------------------------------|
|-------------------------------------|
|--5-0----5-0-5-0-5-0----5-0-5-0-5-0--| (again just do this several times!)
|--5-0----5-0-5-0-5-0----5-0-5-0-5-0--|
|--5-0----5-0-5-0-5-0----5-0-5-0-5-0--|


BETWEEN 1st AND 2nd VERSES:
w/ dist.1
                                        HPM.........|
|-------------------------------------|---------------|
|-------------------------------------|---------------|
|-------------------------------------|---------------|
|----------------R--------------------|--0-0-0-0-0-0--|
|-------------------------------------|--0-0-0-0-0-0--|
|-------------------------------------|--0-0-0-0-0-0--|
(some distorted bass riff played here)


CHORUS:
w/ dist.1

|---------------------------------|
|---------------------------------|
|---------------------------------|
|--6-5-5--6-5-6-5-6-5-5--6-5-6-5--| (again just do this several times!)
|--6-5-5--6-5-6-5-6-5-5--6-5-6-5--|
|--6-5-5--6-5-6-5-6-5-5--6-5-6-5--|


if your band has two guitars, you may add this fill at the end of the chorus riff:
w/dist.2

|---21--21-21---|
|---------------|
|---------------|
|---------------|
|---------------|
|---------------|


CHORUS 2: (2nd part of the 2nd chorus)
w/ dist.1

|---------------------------------|
|---------------------------------|
|---------------------------------|
|--1-0-0--1-0-1-0-1-0-0--1-0-1-0--| (again just do this several times!)
|--1-0-0--1-0-1-0-1-0-0--1-0-1-0--|
|--1-0-0--1-0-1-0-1-0-0--1-0-1-0--|


INTERLUDE (1st part):
w/ dist.1
  PM.....................|
|---------------------------|
|---------------------------|
|---------------------------|
|---------------------------| (several times!)
|--0--0--0--0-0--0--0-0--0--|
|--0--0--0--0-0--0--0-0--0--|


(2nd part):
w/ dist.1

|------------------------|
|--2--2--2--2-2--2--2-2--|
|------------------------|
|------------------------|
|------------------------|
|------------------------|


(3rd part):

gtr.1 w/ dist.1
  PM.................................................|
|---------------------------|---------------------------|
|---------------------------|---------------------------|
|---------------------------|---------------------------|
|---------------------------|---------------------------|
|--0--0--0--0-0--0--0-0--0--|--0--0--0--0-0--0--0-0--0--|
|--0--0--0--0-0--0--0-0--0--|--0--0--0--0-0--0--0-0--0--|
|							|
|gtr.2 w/ dist.2					|
|---------------------------|---------------21--21-21---|
|---------------------------|---------------------------|
|---------------------------|---------------------------|
|----------R----------------|---------------------------|
|---------------------------|---------------------------|
|---------------------------|---------------------------|


just listen to the cd for the order and the timing and how many times you should
play each riff.
            
Submit corrections


        Wisconsin Death Trip lessons Hard to play? Try these video lessons and learn fast Wisconsin Death Trip lessons
        
↑ Back to top | Tablatures and chords for acoustic guitar and electric guitar, ukulele, drums are parodies/interpretations of the original songs. You may use it for private study, scholarship, research or language learning purposes only