» » »

Static - X - The Trance Is The Motion Tabs

Artists:  A B C D E F G H I J K L M N O P Q R S T U V W X Y Z # 

The Trance Is The Motion Tabs

(ver. 2) Click to play this song!
Static - X
 Rating:
4/5 (4 votes)

 The Trance Is The Motion lessons Tabs too difficult? Try these video lessons and learn fast
 
                "(1)
Song - The Trance Is The Motion
Band/Artist - Static X
Tuning - Down 1 Whole Step
Drop D

Riff 1 Heavy Distortion
-------13~------13~-----------------------
-------17~------17~-----------------------
-----------------------------------------------
-----------------------------------------------
-----------------------------------------------
----*0--------0-0--------0--00--00-0-0--
* ( slightly p.m.)

Riff 2 ( almost the same thing )

-------13~------13~-----------------------
-------17~------17~-----------------------
-----------------------------------------------
-----------------------------------------------
-----------------------------------------------
----0--------0-0--------0--00--00-0-------

Riff 3
*let notes ring

--13---------------------8---|
------17------------12------|
-------------------------------|
-------------------------------|
-------------------------------|
-------------------------------|


Riff 4
--------------------------------|
--------------------------------|
--------------------------------|
-0----1--------0----1---------|
-0----1--------0----1---------|
-0----1--------0----1---------|

Well that's pretty much it.

Have any questions comments or corrections e-mail me
"            
Submit corrections


        The Trance Is The Motion lessons Hard to play? Try these video lessons and learn fast The Trance Is The Motion lessons
        
↑ Back to top | Tablatures and chords for acoustic guitar and electric guitar, ukulele, drums are parodies/interpretations of the original songs. You may use it for private study, scholarship, research or language learning purposes only