» » »

Static - X - The Trance Is The Motion Tabs

Artists:  A B C D E F G H I J K L M N O P Q R S T U V W X Y Z # 

The Trance Is The Motion Tabs

(ver. 1) Click to play this song!
Static - X
 Rating:
4/5 (4 votes)

 The Trance Is The Motion lessons Tabs too difficult? Try these video lessons and learn fast
 
                FRICK21(Chad)             



Intro: Synth intro for about 45 sec.

C |----15------------15-------------------|
G |----19------------19-------------------|
D#|---------------------------------------|
A#|---------------------------------------|
F |---------------------------------------|
C |--0-------0-0--------0--0-0-0-0---0-0--|

Verse:
C |---15------------------|
G |-------19-----15-------|
D#|-----------18----------|  2x
A#|-----------------------|
F |-----------------------|
C |-----------------------|

Chorus:            Then hit this end
C |--------------|------------|
G |--------------|------------|
D#|--------------|------------|
A#|--2--3--2--3--|------2-----|
F |--2--3--2--3--|------2-----|
C |--0--1--0--1--|------0-----|
            
Submit corrections


        The Trance Is The Motion lessons Hard to play? Try these video lessons and learn fast The Trance Is The Motion lessons
        
↑ Back to top | Tablatures and chords for acoustic guitar and electric guitar, ukulele, drums are parodies/interpretations of the original songs. You may use it for private study, scholarship, research or language learning purposes only