» » »

Static - X - The Only Tabs

Artists:  A B C D E F G H I J K L M N O P Q R S T U V W X Y Z # 

The Only Tabs

(ver. 3) Click to play this song!
Static - X
 Rating:
4/5 (4 votes)

 The Only lessons Tabs too difficult? Try these video lessons and learn fast
 
                Static-x
The Only

Tuning:- C,G,C,F,A,D


Ok this tab might be wrong coz I wasnt listening to the song when I wrote it. It seems perfect unacompanied though.

Intro/Chorus:
|--------------|
|--------------|
|------3--5--66|
|0--3--3--5--66|
|0--3--1--3--44|
|0--3----------|


Verse:
|------------------|
|------------------|
|8---10---11---10--|
|--8----8----8----8|
|------------------|
|------------------|


Solo:
|---------------------------------------------------------|
|---------------------------------------------------------|
|--65---65------------------------------------------------|
|8----6----4-6-8-10-8-10-8-10-11-13-11-15--13--11--9--1010|
|---------------------------------------------------------|
|---------------------------------------------------------|


Interlude:
|----------------3|
|----------------2|
|----------------3|
|3222322-3222322-0|
|3222322-3222322--|
|3222322-3222322--|

Listen to the song for quantties and timing
            
Submit corrections


        The Only lessons Hard to play? Try these video lessons and learn fast The Only lessons
        
↑ Back to top | Tablatures and chords for acoustic guitar and electric guitar, ukulele, drums are parodies/interpretations of the original songs. You may use it for private study, scholarship, research or language learning purposes only