» » »

Static - X - The Only Tabs

Artists:  A B C D E F G H I J K L M N O P Q R S T U V W X Y Z # 

The Only Tabs

(ver. 2) Click to play this song!
Static - X
 Rating:
4/5 (4 votes)

 The Only lessons Tabs too difficult? Try these video lessons and learn fast
 
                Band	Static-X
Song	The Only
Cd	Shadow Zone
Tuning	C G C F A D
Aim	EmptySt1tches

Chorus (Rythem)
F|----------3~~~5~~~6~~~--------3~~~---------|
C|-0~~~3~~~-3~~~5~~~6~~~0~~~3~~~3~~~1~~~2~~~-|
G|-0~~~3~~~-1~~~3~~~4~~~0~~~3~~~1~~~1~~~2~~~-|
C|-0~~~3~~~-------------0~~~3~~~----1~~~2~~~-|

Chorus (Lead)
A|----------------------10**10-8-8-8-8*-8-6-6-6-6*-4-6-|

Verse (Lead)
D|-10----12----13----10----|
A|----10----10----10----10-|

Pre-Solo/Outro
D|--12-13-|

Solo
F|------------------------------------------------|
C|-12--15-14-11--15-14-8-7-8-10-12-10-12-14-12-14-|

F|-14**-14-12-12-12-12*-12-10-10-10-10*-8-10-|
C|-------------------------------------------|

Bridge (Play without the harmonic once)
C|-3p2-2--3p2-2-----|
G|-3p2-2--3p2-2-----|
C|-3p2-2--3p2-2-(3)-|

Outro (Rythem)
C|-0-00-00-|
G|-0-00-00-|
C|-0-00-00-|

Outro (Lead)
F|-10-9-|
            
Submit corrections


        The Only lessons Hard to play? Try these video lessons and learn fast The Only lessons
        
↑ Back to top | Tablatures and chords for acoustic guitar and electric guitar, ukulele, drums are parodies/interpretations of the original songs. You may use it for private study, scholarship, research or language learning purposes only