» » »

Static - X - Bled For Days Tabs

Artists:  A B C D E F G H I J K L M N O P Q R S T U V W X Y Z # 

Bled For Days Tabs

(ver. 2) Click to play this song!
Static - X
 Rating:
4/5 (4 votes)

 Bled For Days lessons Tabs too difficult? Try these video lessons and learn fast
 
                                         Bled For Days – Static-X


. = Palm mute

Tuning: Drop D down 1 step (C G C F A D)

Intro:             8x|
|--------------------|(Guitar 1)
|--------------------|
|--------------------|
|--------------------|
|--0-2-0-2-0-2--0-2--|
|--0-2-0-2-0-2--0-2--|
|  . . . . . .  . .  |
|                  8x|
|--------------------|(Guitar 2)
|--------------------|
|--------------------|
|--------------------|
|--0-2-0-2-0-2--4-2--|
|--0-2-0-2-0-2--4-2--|
   . . . . . .  . . 

Pre-Verse:  4x|
|-------------|
|-------------|
|-------------|
|--3----3-----|
|--3--0-3--0--|
|--3--0-3--0--|

Verse:
      |        3x|                    |        3x|
|-----|----------|--------------|-----|----------|(Guitar 1)
|-----|----------|--------------|-----|----------|
|-----|----------|--------------|-----|----------|
|--2--|-------2--|--2--2--2--2--|--2--|-------2--|
|--2--|-------2--|--2--2--2--2--|--2--|-------2--|
|--2--|-------2--|--2--2--2--2--|--2--|-------2--|
|     |        3x|              |     |        3x|
|-----|----------|--------------|-----|----------|(Guitar 2)
|-----|----------|--------------|-----|----------|
|-----|----3-----|--------------|-----|----3-----|
|--2--|----3--2--|--2--2--2--2--|--2--|----3--2--|
|--2--|----x--2--|--2--2--2--2--|--2--|----x--2--|
|--2--|--0-3--2--|--2--2--2--2--|--2--|--0-3--2--|

Pre-Chorus:
|       4x|
|---------|
|---------|
|---------|
|----3----|
|----3----|
|----3----|

Chorus:               2x|
|-----------------------|
|-----------------------|
|--9-9-9-9-10-10-10-10--|(Strum these a lot of times)
|--x-x-x-x-x--x--x--x---|
|--7-7-7-7-8--8--8--8---|
|-----------------------|

Pre-Chorus:
|       4x|
|---------|
|---------|
|---------|
|----3----|
|----3----|
|----3----|

Chorus:               2x|
|-----------------------|
|-----------------------|
|--9-9-9-9-10-10-10-10--|
|--x-x-x-x-x--x--x--x---|
|--7-7-7-7-8--8--8--8---|
|-----------------------|

Pre-Verse:         4x|
|--------------------|(Guitar 1)
|--------------------|
|--------------------|
|--------------------|
|--0-2-0-2-0-2--0-2--|
|--0-2-0-2-0-2--0-2--|
|  . . . . . .  . .  |
|                  4x|
|--------------------|(Guitar 2)
|--------------------|
|--------------------|
|--------------------|
|--0-2-0-2-0-2--4-2--|
|--0-2-0-2-0-2--4-2--|
   . . . . . .  . .

Verse:
                     |        3x|
|--------------|-----|----------|(Guitar 1)
|--------------|-----|----------|
|--------------|-----|----------|
|--2--2--2--2--|--2--|-------2--|
|--2--2--2--2--|--2--|-------2--|
|--2--2--2--2--|--2--|-------2--|
|              |     |        3x|
|--------------|-----|----------|(Guitar 2)
|--------------|-----|----------|
|--------------|-----|----3-----|
|--2--2--2--2--|--2--|----3--2--|
|--2--2--2--2--|--2--|----x--2--|
|--2--2--2--2--|--2--|--0-3--2--|

Pre-Chorus: 4x|
|-------------|
|-------------|
|-------------|
|--3----3-----|
|--3--0-3--0--|
|--3--0-3--0--|

Chorus:               4x|
|-----------------------|
|-----------------------|
|--9-9-9-9-10-10-10-10--|
|--x-x-x-x-x--x--x--x---|
|--7-7-7-7-8--8--8--8---|
|-----------------------|

Bridge:            8x|
|--------------------|(Guitar 1)
|--------------------|
|--------------------|
|--------------------|
|--0-2-0-2-0-2--0-2--|
|--0-2-0-2-0-2--0-2--|
|  . . . . . .  . .  |
|                  8x|
|--------------------|(Guitar 2)
|--------------------|
|--------------------|
|--------------------|
|--0-2-0-2-0-2--4-2--|
|--0-2-0-2-0-2--4-2--|
   . . . . . .  . .

Breakdown:                                2x|
|                   2x|                   2x|
|---------------------|---------------------|(Guitar 1)
|---------------------|---------------------|
|---------------------|---------------------|
|---------------------|---------------------|
|--0-2-0-2-0-2--0-2---|--0-2-0-2-0-2--0-2---|
|--0-2-0-2-0-2--0-2---|--0-2-0-2-0-2--0-2---|
|  . . . . . .  . .   |  . . . . . .  . .   |
|                     |                     |
|---------------------|---------------------|(Guitar 2)
|---------------------|---------------------|
|--9-9-9-9-9-9-9-9-9--|--10-10-10-10-10-10--|
|--x-x-x-x-x-x-x-x-x--|--x--x--x--x--x--x---|
|--7-7-7-7-7-7-7-7-7--|--8--8--8--8--8--8---|
|---------------------|---------------------|

Outro:                2x|
|-----------------------|
|-----------------------|
|--9-9-9-9-10-10-10-10--|
|--x-x-x-x-x--x--x--x---|
|--7-7-7-7-8--8--8--8---|
|-----------------------|
            
Submit corrections


        Bled For Days lessons Hard to play? Try these video lessons and learn fast Bled For Days lessons
        
↑ Back to top | Tablatures and chords for acoustic guitar and electric guitar, ukulele, drums are parodies/interpretations of the original songs. You may use it for private study, scholarship, research or language learning purposes only